Oops, an error
Loading. Please wait.

Co Dependence Day bass

by NOFX
1,073 views 1 this week
no commentswrite comment
1 2 3 4 5
3 more votes to show rating
add to favorites
×
Save as Personal and add changes to this tab that will be seen only by you. Learn more ›
×
You can save this tab as Personal to edit and correct it or add notes. All changes will be seen only by you. Learn more »
launch autoscroll
font size
0
reset
guitar tuner
edit
Autoscroll
slow
fast
+/-
esc
set tempo
stop
Author
++++++++++++++++++++++++++
| NOFX- Codependence Day |
++++++++++++++++++++++++++


"January first through New Year's Eve..."

Tuning: Standard EADG


Intro
1.
G|---------------------------------------------------------------------------------|
D|-6h7-777777-77777777-6h7-777777-77777777-6h7-777777-77777777-6h7-777777-77777777-|
A|---------------------------------------------------------------------------------|
E|---------------------------------------------------------------------------------|

2.
G|-------------------------------------------------------------------------|
D|-------5-7-7777777-------3-----------------7-5-5555555-------------------|
A|-3-2-0-------------3-2-0---2-2222222-3-2-0-------------3-2-0---0-0000000-|
E|-------------------------------------------------------------3-----------|

3.
G|---------------------------------------------------------------|
D|-------5-7-7777777-------3-----------------7-5-5555555---------|
A|-3-2-0-------------3-2-0---2-2222222-3-2-0-------------3-2-0---|
E|-------------------------------------------------------------3-|

Verse
"I havent got any more excuses..."
4.
G|-------------------------------------------------------------|
D|-------------------------------------------------------------|
A|-00000000----------30000000----------30000000-------------55-|--x2
E|----------11111111----------11111111----------11111111-33----|

5.
G|-------------------------------------------------------------------------|
D|-------5-7-7777777-------3-----------------7-5-5555555-------------------|
A|-3-2-0-------------3-2-0---2-2222222-3-2-0-------------3-2-0---0-0000000-|
E|-------------------------------------------------------------3-----------|

6.
G|---------------------------------------------------------------|
D|-------5-7-7777777-------3-----------------7-5-5555555---------|
A|-3-2-0-------------3-2-0---2-2222222-3-2-0-------------3-2-0---|
E|-------------------------------------------------------------3-|

Verse
"Veteran role player..."
7.
G|-------------------------------------------------------------|
D|-------------------------------------------------------------|
A|-00000000----------30000000----------30000000-------------55-|
E|----------11111111----------11111111----------11111111-33----|

"See symptons..."
8.
G|-------------------------------------------------------------------------------------------|
D|-------------------------------------------------------------33333333-33333333-3-3-3---0---|
A|-00000000----------30000000----------30000000-------------55-------------------------3---3-|
E|----------11111111----------11111111----------11111111-33----------------------------------|

Chorus
"With fireworks and power lines..."
9.
G|-------------------------------------------------------------------------|
D|-------------------33333333-33333333-------------------------------------|
A|-00000000-00000000-------------------33333333-33333333-22222222-22222222-|
E|-------------------------------------------------------------------------|

"January 1st through New Year's eve..."
10.
G|-------------------------------------------------------|
D|-------------------33333333-33333333-------------------|
A|-00000000-00000000-------------------------------------|
E|-------------------------------------33333333-33333333-|

Outro
11.
G|-------------------------------------------------------------------|
D|-------5-7-7777777-------3-----------------7-5-5555555-------------|
A|-3-2-0-------------3-2-0---2-2222222-3-2-0-------------3-2-0---0~\-|
E|-------------------------------------------------------------3-----|


Please rate thank you!


Lyrics:


I haven't got any more excuses
We've gone way past alcohol abuses
It's too late
We gotta celebrate codependence day

Self-caused afflictions
Magnified with chemical addictions
We're on a date
We get to celebrate codependence day

Veteran role-player
You're the addict, I'll be the enabler
You wanna play?
Let's make every day codependence

See symptoms
It gets clearer
Kinda just like looking in a mirror
Celebrate our disarray on codependence day

With fireworks and power lines
Attempt to meld resolute minds
January first through New Year's Eve
We seem to spend rationalizing 



+++++++++++++++++++++++++++++++++
| RaiLeff                       |
| Underground__Dora@Hotmail.Com |
+++++++++++++++++++++++++++++++++

            
            
Suggest correction
Creating personal tab
Creating personal tab
You can edit any tab online and save it as your Personal.

You can edit, replace or remove any tab part or add personal notes – all changes will be seen only by you.

Personal tabs can be accessed anytime from any device, even offline.
Learn more »
Give kudos to tab author, rate the tab!
1 2 3 4 5
comments
print report bad tab
guest
You may want to rate the tab now too:
select rating
Wanna post a correction for this tab? Suggest correction