Oops, an error
Loading. Please wait.

Creeping Out Sara bass

by NOFX
2,682 views 1 this week
no commentswrite comment
1 2 3 4 5
1 last vote to show rating
add to favorites
×
Save as Personal and add changes to this tab that will be seen only by you. Learn more ›
×
You can save this tab as Personal to edit and correct it or add notes. All changes will be seen only by you. Learn more »
launch autoscroll
font size
0
reset
guitar tuner
edit
Autoscroll
slow
fast
+/-
esc
set tempo
stop
Author
+++++++++++++++++++++++++++
| NOFX- Creeping Out Sara |
+++++++++++++++++++++++++++


"Thats why I was surprised when she told me she was fully lesbian..."

Tuning: Standard EADG


Verse
"I was backstage at a festival in Germany..."
1.
G|------------------------------------------------|
D|---------------------0~----2~----------22-------|
A|-0~--------2~--------------------0~-------5-454-|
E|------------------------------------------------|

"I noticed that her hair was longer in the back..."
2.
G|----------------------------------------------------|
D|---------------------0~----2~-----------------------|
A|-0~--------2~--------------------00000000-0x--------|
E|----------------------------------------------------|

Chorus
"Thats when I realized it was Sara..."
3.
G|--------------------------------------------------------------------------|
D|----------22222222----------22222222--------------------------------------|
A|-00005455----------00005455----------22222244-55555555-00005455-0~--------|
E|--------------------------------------------------------------------------|

Verse
"I told her I was a big fan of her band"
4.
G|------------------------------------------------|
D|---------------------0~----2~-------------------|
A|-0~--------2~--------------------0~-------------|
E|------------------------------------------------|

"I told her this Jew knows about the Juno's..."
5.
G|-------------------------------------------------------|
D|-/7~--------------------0~----2~-----------------------|
A|-----------2~-----------------------00000000-0x--------|
E|-------------------------------------------------------|

Chorus
"Thats when I creeped out Sara..."
6.
G|-------------------------------------------------------------------------|
D|----------22222222----------22222222----------------------------77777777-|
A|-00005455----------00005455----------22222244-55555555-00005455----------|
E|-------------------------------------------------------------------------|

"Where they both ganged up on one girl..."
7.
G|-------------------------------------------------------------------------|
D|----------22222222----------22222222-------------------------------------|
A|-00005455----------00005455----------22222222-22222244-55555555-55555555-|
E|-------------------------------------------------------------------------|

"Did they like Jennifer Tilly..."
8.
G|-------------------------------------|
D|----------22222222----------22222222-|
A|-00005455----------00005455----------|
E|-------------------------------------|

Bridge
"Sara said she preferred Gina Gershon..."
9.
G|-----------------------------------------------------------------------------------------------|
D|-0x-0x-0---0-0x-0x-0-----4x-4x-4-2-4-4x-4x-4-2-0-2x-2x-2-0-2-2x-2x-0---------------------------|
A|---------0-----------4-2---------------------------------------------4-0x-0x-0-2-4-0x-0x-0-2-4-|
E|-----------------------------------------------------------------------------------------------|

"That was on HBO..."
10.
G|--------------------------------------------------------------------------------------------|
D|-4x-4x-4-6-7-4x-4x-4-2---0x-0x-0---0-0x-0x-0-----2x-2x-2x-2x-2x-2x-2x-2x-22222222-2x--------|
A|-----------------------4---------4-----------4-2--------------------------------------------|
E|--------------------------------------------------------------------------------------------|

Chorus
"Thats the problem with Diazepam..."
11.
G|-------------------------------------------------------------------------|
D|-------------------------------------------------------------------------|
A|-00005455----------00005455----------22222222-22222244-55555555-5x-------|
E|----------00000000----------00000000-------------------------------------|

"But I think I creeped out Sara..."
12.
G|----------------------------------------------------------------------------------|
D|----------22222222----------22222222----------22222222----------------------------|
A|-00005455----------00005455----------00005455----------00005455-0~----------------|
E|----------------------------------------------------------------------------------|



Lyrics:

I was backstage at a festival in Germany
talking to a cute fair skinned brunette
I asked her if she wanted to have a beer and if she liked our set
I noticed that her hair was longer in the back
I figure that's cuz she's Canadian
That's why I was surprised when she told me she was fully lesbian

That's when I realized it was Sara, or maybe it was Tegan
I'm pretty sure that it was Sara
Cause Johnny Sampson said she was the cooler one

I told her I was a big fan of her band
She asked me if I had a favorite song
I admitted that I'd never actually heard them, but I like k.d. lang
I told her this Jew knows about the Juno's
And how they got robbed three times in a row
And then I asked her if she knew of anyone who was selling pills or blow

That's when I creeped out Sara or maybe I just pissed her off
When I asked her if her sister and her had ever had a threesome?
Where they both ganged up one girl, a forgy or a fivesome?
Do they think strap-ons are groovy, and had they ever seen the movie
Bound and did they like Jennifer Tilly, did they like Jennifer Tilly?

Sara said she preferred Gina Gershon, Angelina Jolie
In the Gia movie that was on HBO
And "If These Walls Could Talk" made Tegan cry a lot
After that I forgot what she said

That's the problem with Diazepam, so many things I don't remember
But I've got a sinking feeling, it's not that I'm a clairvoyant
But I think I creeped out Sara, I was creeping out on Sara
I hope it wasn't Tegan, cuz Matt Skiba said she is the cooler one 



+++++++++++++++++++++++++++++++++
| RaiLeff                       |
| Underground__Dora@Hotmail.Com |
+++++++++++++++++++++++++++++++++
Suggest correction
Creating personal tab
Creating personal tab
You can edit any tab online and save it as your Personal.

You can edit, replace or remove any tab part or add personal notes – all changes will be seen only by you.

Personal tabs can be accessed anytime from any device, even offline.
Learn more »
Give kudos to tab author, rate the tab!
1 2 3 4 5
comments
print report bad tab
guest
You may want to rate the tab now too:
select rating
Wanna post a correction for this tab? Suggest correction