Oops, an error
Loading. Please wait.

Death Of John Smith bass

version 1
version 1

Whole song

Interactive

by NOFX
1,308 views 3 this week
1 commentread comment
1 2 3 4 5
x 3
add to favorites
×
Save as Personal and add changes to this tab that will be seen only by you. Learn more ›
×
You can save this tab as Personal to edit and correct it or add notes. All changes will be seen only by you. Learn more »
launch autoscroll
font size
0
reset
guitar tuner
edit
Autoscroll
slow
fast
+/-
esc
set tempo
stop
Author
# start #
G--|-------/---------/--|14-1417141719-19141414|
D--|--7-7-71010---7-712-|----------------------|
A--|0-------------------|----------------------|
E--|--------|3X|--------|----------------------|
# intro # *=play 5X
G--|---------/-------/-----|14*--------1714-14--*--------19-----|
D--|------7-71010---7121212|------------------17-----------17-\\|
A--|0---0------------------|------------------------------------|
E--|---------|14X|---------|------------------------------------|
:
# into-main #
G---------------------------------------------------|
D---------------------------------------------------|
A-------------------------------------------33-323-3|
E---5050505050505050505050505050505050505050--------|
:
# main #
G---------------------------------4-----------------%%------%%------>
D-----------55555-----------5--5------------55555---%%------%%------>
A---0-0---0-------3-0-0---0---------0-0---0-------3-%%------%%------>
E---------------------------------------------------%%1--1--%%3--3-->
>main                                                               >
>-----------------------------------%%--------------%%------%%------>
>-----------55555-------------------%%------55555---%%------%%------>
>---0-0---0-------3-0-0---0---------%%0---0-------3-%%------%%------>
>---------------------------33-3-34-%%--------------%%1--1--%%3--3-->
>main                                                               >
>---------------------------------4-----------------%%------%%------>
>-----------55555-----------5--5------------55555---%%------%%------>
>---0-0---0-------3-0-0---0---------0-0---0-------3-%%------%%------>
>---------------------------------------------------%%1--1--%%3--3-->
>main       
>---%%------%%------%%------%%------|
>---%%3--3--%%5--5--%%------%%------|
>---%%------%%------%%------%%------|
>---%%------%%------%%1--1--%%3--3--|
:
# verse # X4 *=play 6X #=play 3X %=pause
G-------------%%%%%%----------%%%%%---------------------------------|
D-------------%%%%%%----------%%%%%--*---------------#--------------|      
A---0-0---0-0-%%%%%%0-0---0-0-%%%%%/8---------------3--------#------|     
E-------------%%%%%%----------%%%%%-------------------------3-------|        
:
# chorus # *=play 6X #=play 3X (So I keep on working...)
G------------------------------------*-------*------|
D----*-------#-------*-------#---#--3-------5-------|
A---8-------3----#--8-------2---3-------------------|
E---------------3-----------------------------------|
:
# TILT # !õ=10! %=pause h=hammer-on p=pull-off *=play 5-8X          >                     
G---------%%-p-5--5----%%%%%-*---------------p-5-----p-------p------>
D---7---\\%%75h--------%%%%%7------\--------75h---5-75h5--5-75h----->
A---------%%--7-----0--%%%%%--------0-0-0-0---7-------7-------73--5->
E---------%%-----------%%%%%---------------------------------------->
>TILT                                                               >
>------%%%%%-----------%%%%%-*---------------p-5-----p-------p------>
>------%%%%%-----------%%%%%7------\--------75h---5-75h5--5-75h----->
>------%%%%%-----------%%%%%--------0-0-0-0---7-------7-------73--5->
>---5-\%%%%%5303--4-5-\%%%%%---------------------------------------->
>TILTB
>-------------------------------%%%%--------| 
>------7õ--\--------5--7--5-7-7-%%%%--------|   
>---88------5--6--7-------------%%%%--------| > Then play first row of main.
>-------------------------------%%%%33-3-34-|   >>>>>>>>>to next page...
THE DEATH OF JOHN SMITH                                                   2/2
:
# verse2 # %=pause *=play 6X                                        >
G-------------%%%%%-----------%%%%%%------------------9--12--------->
D-------------%%%%%1012--14---%%%%%%-*-------------10------12--10-9->      
A--1212--1212\%%%%%--------12\%%%%%%8------------------------------->     
E-------------%%%%%-----------%%%%%%-------------------------------->        
>verse2
>-|-----------%%%-------------%|2X|%------------------9--12--------|>
>-|-----------%%%--/----------%%%%%%-*-------------10------12--10-9|>      
>-|1212--1212\%%%121515--1512\%%%%%%8------------------------------|>     
>-|-----------%%%-------------%%%%%%-------------------------------|>
>verse2
>-------------%%%%------------%%%%%%------------------9--12---------|
>-------------%%%%/1412--10---%%%%%%-*-------------10------12--10-9-|      
>--1212--1212\%%%%---------12\%%%%%%8-------------------------------|     
>-------------%%%%------------%%%%%%--------------------------------|        
:
Then play chorus.
:
# bridge # !play all notes 16X! (When the pity spins your mind...)
G---------------------------------------------------------------------------|
D---------------------------------------------------------------------------|
A-------------------5-----/12------10-------5-----/12------10-------5-------|
E---5-------3---------------------------------------------------------------|
:
# main3 # %=pause
G---------------------------------------------------------7-88-8-%%%|
D-----------55555-----------55555-----------55555-----------99-9-%%%|
A---0-0---0-------3-0-0---0-------3-0-0---0-------3/8887---------%%%|
E----------------------------------------------------------------%%%|
:
# verse3 # %=pause *=play 6X #=play 3X                              >
G------------------------------------------------------------------->
D----*---------------*---------------*---------------#-------------->      
A---0---------------0--------------/8---------------3--------#------>     
E-----------------------------------------------------------3------->        
>verse3                                                             >
>----------------------------------------------------#-------------->
>----*---------------*---------------*-------------10--------#------>      
>-/12--------------12---------------8----------------------10------->     
>------------------------------------------------------------------->
>verse3                                                             >
>-----------------------------------------------------9--12--------->
>----*---------------*---------------*-------------10------12--10-9->      
>--12--------------\0--------------/8------------------------------->     
>------------------------------------------------------------------->
>verse3                                                              
>-------------------------------------------------------------------|
>----*---------------#-------#-------*---------------#--------------|      
>--12-------------/15------12-------8---------------3--------#------|     
>-----------------------------------------------------------3-------|
:
# chorus3 # *=play 6X #=play 3X 
G------------------------------------*-------*----------------------|
D----*-------#-------*-------#---#--3-------3-----------------------|
A---8-------3----#--8-------2---3--------------------*-------*------|
E---------------3-----------------------------------3-------3-------|
:
Then play last two rows of main.
:
# outro #  %=pause                                                 
G------------p-5--5-%%------|
D-----------75h-----%%------|
A---0-0---0---7-----%%------|
E-------------------%%5-35-\|

            
            
Suggest correction
Creating personal tab
Creating personal tab
You can edit any tab online and save it as your Personal.

You can edit, replace or remove any tab part or add personal notes – all changes will be seen only by you.

Personal tabs can be accessed anytime from any device, even offline.
Learn more »
Give kudos to tab author, rate the tab!
1 2 3 4 5
comments
print report bad tab
1 comment total.
0 reply
MTS 10 Mar 29, 2006 06:05 AM

hmm AWESOME TAB DUDE!!!!!!! I dont understand which retard rated this 3 stars...bad person for such a good tab :D

guest
You may want to rate the tab now too:
select rating
Wanna post a correction for this tab? Suggest correction