Oops, an error
Loading. Please wait.

Drugs Are Good bass

version 2
version 2

Whole song

Interactive

by NOFX
3,221 views 3 this week
no commentswrite comment
1 2 3 4 5
3 more votes to show rating
add to favorites
×
Save as Personal and add changes to this tab that will be seen only by you. Learn more ›
×
You can save this tab as Personal to edit and correct it or add notes. All changes will be seen only by you. Learn more »
launch autoscroll
font size
0
reset
guitar tuner
backing track
0:00
0:00
edit
Autoscroll
slow
fast
+/-
esc
set tempo
stop
Author
++++++++++++++++++++++++
| NOFX- Drugs Are Good |
++++++++++++++++++++++++

EADG

Intro
1.
G|-------------------------------------------------------------------------|
D|-77777777-77777777-77777777-77777777-77777777-77777777-77777777--7\1-----|
A|-------------------------------------------------------------------------|
E|---------------------------------------------------------------------030-|

While you slide down (7/1) pluck the string

2.
G|--------------------------------------------------------------------------|
D|-----------------------33333----------------------------------------------|
A|-00002-33333-----3333------------00002-33333--------22-33-55----22-3x-----|
E|-------------030-----3-------030-------------030-33----------33-------030-|

3.
G|-------------------------------------------------------------------|
D|-----------------------33333---------------------------------------|
A|-00002-33333-----3333------------00002-33333-----------------------|
E|-------------030-----3-------030-------------030-33333333-33333333-|

Verse
"Want to fuck off..."
4.
G|-------------------------------------------------------------------------|
D|-------------------------------------------------------------------------|
A|-00000000-33333333-33333333----------000002-333333-333-------------------|--x2
E|----------------------------1111-030-------------------33333333-33333333-|

Chorus
"Drugs are good, they make you do things that you know you not should..."
5.
G|----------------------------------------------------------------------------------------|
D|----------------------------------------------------------------------------------------|
A|-----------0000-0000-3333----------------1111------3333-3333-1111------3333-3333-3~-----|
E|-1111-3333----------------3333-1111-1111------1111----------------1111--------------030-|

Outro
6.
G|--------------------------------------------------------------------------|
D|-----------------------33333----------------------------------------------|
A|-00002-33333-----3333------------00002-33333--------22-33-55----22-3x-----|
E|-------------030-----3-------030-------------030-33----------33-------030-|

7.
G|-------------------------------------------------------------------|
D|-----------------------33333---------------------------------------|
A|-00002-33333-----3333------------00002-33333-----------------------|
E|-------------030-----3-------030-------------030-33333333-33333333-|

Verse
"Want to join a punk band..."
8.
G|-------------------------------------------------------------------------|
D|-------------------------------------------------------------------------|
A|-00000000-33333333-33333333----------000002-333333-333-------------------|--x2
E|----------------------------1111-030-------------------33333333-33333333-|

Chorus
"Drugs are neat, and you can buy em relatively cheap..."
9.
G|----------------------------------------------------------------------------------------|
D|----------------------------------------------------------------------------------------|
A|-----------0000-0000-3333----------------1111------3333-3333-1111------3333-3333-3~-----|
E|-1111-3333----------------3333-1111-1111------1111----------------1111--------------030-|

Outro
10.
G|----------------------------------------------------|
D|-----------------------33333---------------------5~-|
A|-00002-33333-----3333------------00002-33333--------|
E|-------------030-----3-------030-------------030----|

Lyrics

1-2-fuck off, drop out, never trust a fucking hippie
And for that matter don't trust anyone.
Quit school, don't work, livin' out the music de punk.
If I could do it so could anyone.

Drugs are good, they let you do things that you know you not should.
And when you do 'em people think that you're cool.
And when you do 'em people think that you're cool.

1-2-join a punk band, shave your head and get a tattoo.
You don't need talent just sing out of tune.
Self destruction, no moral to throw it on me.
For no particular reason beat up everyone.

Drugs are neat, and you can buy 'em relatively cheap.
And when you do 'em people think that you're cool.
And when you do 'em people think that you're cool.

+++++++++++++++++++++++++++++++++
| RaiLeff                       |
| Underground__Dora@Hotmail.Com |
+++++++++++++++++++++++++++++++++
Suggest correction
Creating personal tab
Creating personal tab
You can edit any tab online and save it as your Personal.

You can edit, replace or remove any tab part or add personal notes – all changes will be seen only by you.

Personal tabs can be accessed anytime from any device, even offline.
Learn more »
Give kudos to tab author, rate the tab!
1 2 3 4 5
comments
print report bad tab
guest
You may want to rate the tab now too:
select rating
Wanna post a correction for this tab? Suggest correction