Oops, an error
Loading. Please wait.

Drugs Are Good tab

version 4
version 4

Whole song

Interactive

by NOFX
3,865 views 1 this week
no commentswrite comment
1 2 3 4 5
1 last vote to show rating
add to favorites
×
Save as Personal and add changes to this tab that will be seen only by you. Learn more ›
×
You can save this tab as Personal to edit and correct it or add notes. All changes will be seen only by you. Learn more »
launch autoscroll
font size
0
reset
how to read this tab
guitar tuner
backing track
0:00
0:00
edit
Autoscroll
slow
fast
+/-
esc
set tempo
stop
Difficulty
intermediate
NOFX
Drugs Are Good
Tabbed by: Josh Rea
email: jjrea80@yahoo.com
Here's a really fun way to play this song!  Of course, it helps if you've heard it 
before.  Let me know what u think!

intro:              pm____               pm____               pm____
e|-||----------------------------------------------------------------|
B|-||----------------------------------------------------------------|
G|O||---------------------------7-5-5555-----------------------------|
D|O||-2-22-0-2-2222--------2-22-5-3-3333--------2-22-0-2-2222--------|
A|-||-0-00-2-3-3333--------3-33-5-3-3333--------0-00-2-3-3333--------|
E|-||---------------00-3-0---------------00-3-0---------------00-3-0-|
    ______________________  ____________________
 |1.             pm____    |2. pm_____________
e|-3-33333333333----------||--------------------|
B|-3-33333333333----------||--------------------|
G|-0-00000000000---------O||--------------------|
D|-0-00000000000---------O||-5-555555555555555--|
A|-2-22222222222----------||-5-555555555555555--|
E|-3-33333333333-00-3-0---||-3-333333333333333--|

verse:

e||-------------------------------------------------------------|
B||-------------------------------------------------------------|
G||O------------------------------------------------------------|
D||O-2-2-222-5-5-55555-5-555-3-3333--------2-22-0-2-2222--------|
A||--0-0-000-3-3-33333-3-335-3-3333--------0-00-2-3-3333--------|
E||------------------------3-1-1111-00-3-0---------------00-3-0-|

e|-3-333333-3333333--||
B|-3-333333-3333333--||
G|-0-000000-0000000-O||
D|-0-000000-0000000-O||
A|-------------------||
E|-3-333333-3333333--||

chorus:
                                                                      pm___
e|-------------------------------------------------------------------------|
B|-------------------------------------------------------------------------|
G|-------2-22222225-55------------3-33----5-55555553-33----55555555-5-55555|
D|3-333332-22222225-555553-33333333-33-3335-55555553-33-33355555555-5-55555|
A|3-333330-00000003-335553-33333331-11-3333-33333331-11-33333333333-3-33333|
E|1-11111-------------3331-1111111-----111--------------111----------------|

Start again from intro and viola!
Ending involves intro again and open G chord raked down!
Pretty darn easy for NOFX but a lot of fun to play once you get the timing down!

            
            
Suggest correction
Creating personal tab
Creating personal tab
You can edit any tab online and save it as your Personal.

You can edit, replace or remove any tab part or add personal notes – all changes will be seen only by you.

Personal tabs can be accessed anytime from any device, even offline.
Learn more »
Give kudos to tab author, rate the tab!
1 2 3 4 5
comments
print report bad tab
guest
Wanna post a correction for this tab? Suggest correction