Oops, an error
Loading. Please wait.

Falling In Love bass

version 1
version 1

Whole song

Interactive

by NOFX
3,664 views 18 this week
2 commentsread comments
1 2 3 4 5
1 last vote to show rating
add to favorites
×
Save as Personal and add changes to this tab that will be seen only by you. Learn more ›
×
You can save this tab as Personal to edit and correct it or add notes. All changes will be seen only by you. Learn more »
launch autoscroll
font size
0
reset
guitar tuner
edit
Autoscroll
slow
fast
+/-
esc
set tempo
stop
Song: Falling in Love
Band: NOFX
Album: So Long And Thanks For All The Shoes
tabbed by: Olya: olly_r@hotmail.com, icq: 20316789

intro (when whole band plays)

G:---------------------------------------------------------------
D:-----0--2-2-0------0-------------------------------------------
A:---------------3-3---------------------------------------------
E:-3-3------------------3-3-3------------------------------------


G:------------2--4-4-2--0----------------------------------------
D:-----0--2-2----------------------------------------------------
A:---------------------------------------------------------------
E:-3-3-----------------------------------------------------------

Riff 1

G:---------------------------------------------------------------
D:-000000000000---------------333333333333-----------------------
A:--------------1111111111111--------------333333333333----------
E:---------------------------------------------------------------


G:---------------------------------------------------------------
D:-111111111111---------------------------111111111111-----------
A:--------------111111111111-333333333333------------------------
E:---------------------------------------------------------------

Riff 2

G:---------------------------------------------------------------
D:-000000000000-111111111111-333333333333------------------------
A:----------------------------------------111111111111-----------
E:---------------------------------------------------------------


G:---------------------------------------------------------------
D:---------------000000000000-111111111111-333333333333----------
A:-111111-000000----------------------------------------3--------
E:---------------------------------------------------------------

Order you play it all in:

1. Intro
2. Riff 1 x3
3. Riff 2

That's it. Enjoy.
Suggest correction
Creating personal tab
Creating personal tab
You can edit any tab online and save it as your Personal.

You can edit, replace or remove any tab part or add personal notes – all changes will be seen only by you.

Personal tabs can be accessed anytime from any device, even offline.
Learn more »
Give kudos to tab author, rate the tab!
1 2 3 4 5
comments
print report bad tab
2 comments total.
0 reply
RaiLeff 12,922 Feb 03, 2007 09:52 AM

Rated a 4 ;)
Your only mistake is the intro
Althou it sounds good but its not right :D
It should be something like:

G|--------------------------|
D|-55-4~--22-0~----0~-------|
A|--------------33----------|
E|--------------------33-3~-|

G|-----------2~--44-5~------|
D|-55-4~--22----------------|
A|--------------------------|
E|--------------------------|

Keep up the good work ^^

0 reply
LoDennis 135 May 11, 2007 12:23 PM

Well... I'd say the intro is the most difficult thing on this tab^^

guest
Wanna post a correction for this tab? Suggest correction