Oops, an error
Loading. Please wait.

Fermented And Flailing bass

by NOFX
1,133 views 1 this week
no commentswrite comment
1 2 3 4 5
1 last vote to show rating
add to favorites
×
Save as Personal and add changes to this tab that will be seen only by you. Learn more ›
×
You can save this tab as Personal to edit and correct it or add notes. All changes will be seen only by you. Learn more »
launch autoscroll
font size
0
reset
guitar tuner
edit
Autoscroll
slow
fast
+/-
esc
set tempo
stop
Author
++++++++++++++++++++++++++++++++
| NOFX- Fermented And Flailing |
++++++++++++++++++++++++++++++++


"And its a long, long way down..."

Tuning: Standard EADG



Intro
1.
G|-------------------------------------------------------------|
D|-------------------------------------------------------------|
A|-------------------------------55-5555-55-555-55-5555-55-555-|
E|-------------------------------------------------------------|

2.
G|-------------------------------------------------------------|
D|-------------------------------------------------------------|
A|-7x----------------------------00-0000-00-000-00-0000-00-000-|
E|-------------------------------------------------------------|

3.
G|-------------------------------------------------------------|
D|-------------------------------44-4444-44-444-44-4444-44-444-|
A|-00-0000-00-000-00-0000-00-000-------------------------------|
E|-------------------------------------------------------------|

4.
G|--------------------------------------------------------------|
D|--------------------------------------------------------------|
A|-55-5555-55-555-55-5555-55-555-77-7777-77-777-5555x--4444x-22-|
E|--------------------------------------------------------------|

Verse
"This is not a test..."
5.
G|--------------------------------------------------------------|
D|-----------------------------------------------------------44-|
A|-00-0000-00-000-00-0000-00-000-55-5555-55-555-5555x--5555x----|
E|--------------------------------------------------------------|

"Theres really no one else..."
6.
G|-------------------------------------------------------------|
D|-------------------------------------------------------------|
A|-77-7777-77-777-77-7777-77-777-00-0000-00-000-00-0000-00-000-|
E|-------------------------------------------------------------|

"This was not ruined by a regime..."
7.
G|--------------------------------------------------------------|
D|-----------------------------------------------------------22-|
A|-00-0000-00-000-00-0000-00-000--------------------------------|
E|-------------------------------22-2222-22-222-2222x--2222x----|

"Of angry, stupid, scared..."
8.
G|-------------------------------------------------------------|
D|-------------------------------------------------------------|
A|-55-5555-55-555-55-5555-55-555-77-7777-77-777-77-7777-77-777-|
E|-------------------------------------------------------------|

Chorus
"And its a long long way down..."
9.
G|-------------------------------------------------------------|
D|-------------------------------------------------------------|
A|-55-5555-55-555-55-5555-55-555-55-5555-55-555-55-5555-55-555-|
E|-------------------------------------------------------------|

10.
G|------------------------------------------------------|
D|-77-7777-7777777-77x--------77-7777-777777-77x--------|
A|------------------------------------------------------|
E|------------------------------------------------------|

"And its a long long free dive..."
11.
G|-------------------------------------------------------------|
D|-------------------------------------------------------------|
A|-55-5555-55-555-55-5555-55-555-55-5555-55-555-55-5555-55-555-|
E|-------------------------------------------------------------|

12.
G|------------------------------------------------------|
D|-77-7777-7777777-77x--------77-7777-777777-77x--------|
A|------------------------------------------------------|
E|------------------------------------------------------|

"Its been a long time coming..."
13.
G|-------------------------------------------------------------|
D|-------------------------------------------------------------|
A|-55-5555-55-555-55-5555-55-555-77-7777-77-777-77-7777-77-777-|
E|-------------------------------------------------------------|

Verse
"Its time to redefine..."
14.
G|--------------------------------------------------------------|
D|-----------------------------------------------------------44-|
A|-00-0000-00-000-00-0000-00-000-55-5555-55-555-5555x--5555x----|
E|--------------------------------------------------------------|

"Circle the figurative wagons..."
15.
G|-------------------------------------------------------------|
D|-------------------------------------------------------------|
A|-77-7777-77-777-77-7777-77-777-00-0000-00-000-00-0000-00-000-|
E|-------------------------------------------------------------|

"A long painful de-evolution..."
16.
G|--------------------------------------------------------------|
D|-----------------------------------------------------------22-|
A|-00-0000-00-000-00-0000-00-000--------------------------------|
E|-------------------------------22-2222-22-222-2222x--2222x----|

"America as we know it is finished..."
17.
G|-------------------------------------------------------------|
D|-------------------------------------------------------------|
A|-55-5555-55-555-55-5555-55-555-77-7777-77-777-77-7777-77-777-|
E|-------------------------------------------------------------|

Chorus
"And its a long long way down..."
18.
G|-------------------------------------------------------------|
D|-------------------------------------------------------------|
A|-55-5555-55-555-55-5555-55-555-55-5555-55-555-55-5555-55-555-|
E|-------------------------------------------------------------|

19.
G|------------------------------------------------------|
D|-77-7777-7777777-77x--------77-7777-777777-77x--------|
A|------------------------------------------------------|
E|------------------------------------------------------|

"And its a long long free fall..."
20.
G|-------------------------------------------------------------|
D|-------------------------------------------------------------|
A|-55-5555-55-555-55-5555-55-555-55-5555-55-555-55-5555-55-555-|
E|-------------------------------------------------------------|

21.
G|------------------------------------------------------|
D|-77-7777-7777777-77x--------77-7777-777777-77x--------|
A|------------------------------------------------------|
E|------------------------------------------------------|

"Its been a long time coming..."
22.
G|-------------------------------------------------------------|
D|-------------------------------------------------------------|
A|-55-5555-55-555-55-5555-55-555-77-7777-77-777-77-7777-77-777-|
E|-------------------------------------------------------------|

Outro
23.
G|-------------------------------------------------------------|
D|-------------------------------------------------------------|
A|-0~----------------------------55-5555-55-555-55-5555-55-555-|
E|-------------------------------------------------------------|

24.
G|-------------------------------------------------------------|
D|-------------------------------------------------------------|
A|-7x----------------------------00-0000-00-000-0~-------------|
E|-------------------------------------------------------------|


Please rate thank you!


Lyrics:

This is not a test, not true, this kind of is a test of our endurance
There's really no one left to place the blame on and hang in effigy
This was not ruined by a regime, it also took a hundred million
Of angry, stupid, scared, pathetic populace to complete the deed

And it's a long, long way down
And there's no climbing back so wave bye bye
And it's a long, long free dive
So fill your lungs with air and grab a weight
It's been a long time coming and well deserved

It's time to redefine what we call neighborhoods and start to trust your neighbors
Circle the figurative wagons and figure it's gonna be 
A long painful de-evolution that could last for decades
America as we know it, is finished, fermenting and flailing

And it's a long, long way down
The parachutes are gone so grab a smoke
And it's a long, long free fall
No signs of soft landing bon grave voyage
It's been a long time coming and well deserved 



+++++++++++++++++++++++++++++++++
| RaiLeff                       |
| Underground__Dora@Hotmail.Com |
+++++++++++++++++++++++++++++++++

            
            
Suggest correction
Creating personal tab
Creating personal tab
You can edit any tab online and save it as your Personal.

You can edit, replace or remove any tab part or add personal notes – all changes will be seen only by you.

Personal tabs can be accessed anytime from any device, even offline.
Learn more »
Give kudos to tab author, rate the tab!
1 2 3 4 5
comments
print report bad tab
guest
You may want to rate the tab now too:
select rating
Wanna post a correction for this tab? Suggest correction