Oops, an error
Loading. Please wait.

First Call bass

by NOFX
2,536 views 1 this week
no commentswrite comment
1 2 3 4 5
x 3
add to favorites
×
Save as Personal and add changes to this tab that will be seen only by you. Learn more ›
×
You can save this tab as Personal to edit and correct it or add notes. All changes will be seen only by you. Learn more »
launch autoscroll
font size
0
reset
guitar tuner
edit
Autoscroll
slow
fast
+/-
esc
set tempo
stop
Author
++++++++++++++++++++
| NOFX- First Call |
++++++++++++++++++++


"Irish coffee and Irish car bomb..."

Tuning: EADG

Verse
1.
G|------|
D|------|
A|-3/88-|
E|------|

"Me and the Bads were staying up late..."
2.
G|-----------------------------5-5---------------------------------|
D|----52-203-32-------75-543-32----2-20---75-543-3----52-203-32----|
A|-3-3---------3-3-0-0-----------------0-0---------3-3---------3-3-|
E|-----------------------------------------------------------------|

"Not a walk of shame, its a walk of pride..."
3.
G|---------------------------------------------------------------------------------|
D|------2222-3333----------------3333------2222------5555-3333------2222-3333------|
A|-3333-----------3333-0000-----------3333------0000-----------3333-----------3333-|
E|--------------------------3333---------------------------------------------------|

Chorus
"Six AM we'll start all over again..."
4.
G|-------------------------------------------------------------------------|
D|-------------------33333333-33333333-------------------66666666-66666666-|
A|-00000000-00000000-------------------33333333-33333333-------------------|--x2
E|-------------------------------------------------------------------------|

Verse
"It smells like bleach, adult diapers and mold..."
5.
G|-5-5-4-4---------------------5-5-----------------5-54------------|
D|----5---53-352-2----75-543-32----2-20---75-543-3-----5-543-352-2-|
A|-----------------0-0-----------------0-0-------------------------|
E|-----------------------------------------------------------------|

"Irish coffee and Irish car bomb..."
6.
G|---------------------------------------------------------------------------------|
D|------2222-3333----------------3333------2222------5555-3333------2222-3333------|
A|-3333-----------3333-0000-----------3333------0000-----------3333-----------3333-|
E|--------------------------3333---------------------------------------------------|

Chorus
"Six AM we'll start all over again..."
7.
G|-------------------------------------------------------------------------|
D|-------------------33333333-33322200-------------------66666666-99977766-|
A|-00000000-00000000-------------------33333333-33333333-------------------|--x2
E|-------------------------------------------------------------------------|

Bridge
8.
G|---------------------------------------------------------------------------------|
D|------2222-3333----------------3333------2222------5555-3333------2222-3333------|
A|-3333-----------3333-0000-----------3333------0000-----------3333-----------3333-|
E|--------------------------3333---------------------------------------------------|

Verse
"All my neighbors are fast asleep..."
9.
G|-----------------------------5-5---------------------------------|
D|----52-203-32-------75-543-32----2-20---75-543-3-----------------|
A|-3-3---------3-3-0-0-----------------0-0---------3x--------------|
E|-----------------------------------------------------------------|

"Im gonna be the very first one at first call..."
10.
G|-5-5-4-4-----5-5-5-5-4-4-----5-5-5-54----------------------------------|
D|----5---53-35-------5---53-35--------5-543-352-2----02-2-3-3-----------|
A|-------------------------------------------------3-3---------3~--------|
E|-----------------------------------------------------------------------|


Lyrics:


All my neighbors are fast asleep
And I can't find anything to drink
The McKenzies drank all the grain alcohol
So I'm headed down the street to first call
Me and the Bads were staying up late
Kitty and Victor got dropped from the plate
But no one was contented with the Wednesday wassail
So I said it's only four short blocks to first call
Not a walk of shame it's a walk of pride
Peoples goin' to work while we're getting cockeyed
The sun's coming up and the drinks are goin' down
So shut the fuck up and I'll get the next round

6am, we'll start all over again
No one applying the brakes
We'll stop the sweats and the shakes
We're gonna eat pickled egg
We're gonna see Toby Jeg
We're not gonna let sun light have effect on our fun

It smells like bleach, adult diapers and mold
And everyone around me's over 60 years old
But we're gonna share the next hour or two
We all got each other and nothing better to do
Irish coffee, and Irish car bomb
A fat drunk jew starts singing this song
I take a closer look and the fat guy is me
So I buy him a shot, and he buys me back three

6am, we'll start all over again
No one applying the brakes
We'll stop the sweats and the shakes
We're gonna eat pickled egg
We're gonna hang with Dave Gregg
We're not gonna let sun light help decide when we're done

All my neighbors are fast asleep
And I can't find anything to drink
The Loved Ones drank all of my alcohol
So I'm gonna be the very first one at first call



+++++++++++++++++++++++++++++++++
| RaiLeff                       |
| Underground__Dora@Hotmail.Com |
+++++++++++++++++++++++++++++++++

            
            
Suggest correction
Creating personal tab
Creating personal tab
You can edit any tab online and save it as your Personal.

You can edit, replace or remove any tab part or add personal notes – all changes will be seen only by you.

Personal tabs can be accessed anytime from any device, even offline.
Learn more »
Give kudos to tab author, rate the tab!
1 2 3 4 5
comments
print report bad tab
guest
You may want to rate the tab now too:
select rating
Wanna post a correction for this tab? Suggest correction