Oops, an error
Loading. Please wait.
We have an official Franco Unamerican tab made by UG professional guitarists. Check out the tab »
×
by NOFX
10,058 views 1 this week
9 commentsread comments
1 2 3 4 5
x 8
add to favorites
launch autoscroll
font size
0
reset
how to read this tab
guitar tuner
Autoscroll
slow
fast
+/-
esc
set tempo
stop
Author
NOFX Franco un-American
From the album War On Errorism
Track 3
Tabbed by Liam
Email: guitar_rocker_47@hotmail.com
Tuning: Standard

Intro
E|---------|---------|---------|---------|---------|---------|---------|---------|
B|---------|---------|---------|---------|---------|---------|---------|---------|
G|---------|---------|---------|---------|---------|---------|---------|---------|
D|---------|---------|---------|---------|---------|---------|---------|---------|
A|-5/10-10-|-5/10-10-|-5/10-10-|-5/10-10-|-5/10-10-|-5/10-10-|-5/10-10-|-5/10-10-|
E|---------|---------|--------=|---------|---------|---------|---------|---------|

Verse
E|-----------------------------------------------------|---------------------|
B|----------------------4-4-4--------------------------|---------------------|
G|--------5-5-5---------4-4-4-------------5-5-5--7-7-7-|--------5-5-5--------|
D|-5-5-5--5-5-5--5-5-5--2-2-2--7-7-7-7-7--5-5-5--7-7-7-|-5-5-5--5-5-5--5-5-5-|
A|-5-5-5--3-3-3--5-5-5---------7-7-7-7-7--3-3-3--5-5-5-|-5-5-5--3-3-3--5-5-5-|
E|-3-3-3---------3-3-3---------5-5-5-5-5---------------|-3-3-3---------3-3-3-|

E|---------------------------------------------------------------------------|
B|-4-4-4---------------------------------------------------------------------|
G|-4-4-4-------------5-5-5--7-7-7--------------------------------------------|
D|-2-2-2--7-7-7-7-7--5-5-5--7-7-7--------------------------------------------|
A|--------7-7-7-7-7--3-3-3--5-5-5--------------------------------------------|
E|--------5-5-5-5-5----------------------------------------------------------|

Verse Part 2 played along with a 2nd guitar playing the intro with some crazy effects)
e|-----------------------------------------------------|---------------------|
B|----------------------4-4-4--------------------------|---------------------|
G|--------5-5-5---------4-4-4-------------5-5-5--7-7-7-|--------5-5-5--------|
D|-5-5-5--5-5-5--5-5-5--2-2-2--7-7-7-7-7--5-5-5--7-7-7-|-5-5-5--5-5-5--5-5-5-|
A|-5-5-5--3-3-3--5-5-5---------7-7-7-7-7--3-3-3--5-5-5-|-5-5-5--3-3-3--5-5-5-|
E|-3-3-3---------3-3-3---------5-5-5-5-5---------------|-3-3-3---------3-3-3-|

E|---------------------------------------|-----------------------------------|
B|--4-4-4--------------------------------|-----------------------------------|
G|--4-4-4-------------5-5-5--7-7-7-------|-----------------------------------|
D|--2-2-2--7-7-7-7-7--5-5-5--7-7-7-------|-----------------------------------|
A|---------7-7-7-7-7--3-3-3--5-5-5-------|-----------------------------------|
E|---------5-5-5-5-5---------------------|-----------------------------------|

Pre Chorus
E|-----------------------------------------------------------------------|
B|-----------------------------------------------------------------------|
G|----------5-5-5-5-----------9-9-9-9-------------------5-5-5-5--7-7-7-7-|
D|-5-5-5-5--5-5-5-5--5-5-5-5--9-9-9-9--7-7-7-7-7-7-7-7--5-5-5-5--7-7-7-7-| 
A|-5-5-5-5--3-3-3-3--5-5-5-5--7-7-7-7--7-7-7-7-7-7-7-7--3-3-3-3--5-5-5-5-|
E|-3-3-3-3-----------3-3-3-3-----------5-5-5-5-5-5-5-5-------------------|
PM *********************************************************************

E|-----------------------------------------------------------------------|
B|-----------------------------------------------------------------------|
G|----------5-5-5-5-----------9-9-9-9-------------------5-5-5-5--7-7-7-7-|
D|-5-5-5-5--5-5-5-5--5-5-5-5--9-9-9-9--7-7-7-7-7-7-7-7--5-5-5-5--7-7-7-7-| 
A|-5-5-5-5--3-3-3-3--5-5-5-5--7-7-7-7--7-7-7-7-7-7-7-7--3-3-3-3--5-5-5-5-|
E|-3-3-3-3-----------3-3-3-3-----------5-5-5-5-5-5-5-5-------------------|
PM *********************************************************************

E|-----------------------------------------------------------------------|
B|-----------------------------------------------------------------------|
G|----------7-7-7-7-----------5-5--7-7-----------------------------------|
D|-5-5-5-5--7-7-7-7--7-7-7-7--5-5--7-7-----------------------------------|
A|-5-5-5-5--5-5-5-5--7-7-7-7--3-3--5-5-----------------------------------|
E|-3-3-3-3-----------5-5-5-5---------------------------------------------|

Chorus (this doesn't look right but it sounds right, trust me)
E|------------------------------------|------------------------------------|
B|------------------------------------|------------------------------------|
G|----------7-7-7-7-----------5-5-5-5-|----------7-7-7-7-----------5-5-5-5-|
D|-5-5-5-5--7-7-7-7-----------5-5-5-5-|-5-5-5-5--7-7-7-7-----------5-5-5-5-|  
A|-5-5-5-5--5-5-5-5--7-7-7-7--3-3-3-3-|-5-5-5-5--5-5-5-5--7-7-7-7--3-3-3-3-|
E|-3-3-3-3-----------7-7-7-7----------|-3-3-3-3-----------7-7-7-7----------|

E|------------------------------------|------------------------------------|
B|------------------------------------|------------------------------------|
G|----------7-7-7-7-----------5-5-5-5-|----------7-7-7-7-------------------|
D|-5-5-5-5--7-7-7-7-----------5-5-5-5-|-5-5-5-5--7-7-7-7--2----------------|  
A|-5-5-5-5--5-5-5-5--7-7-7-7--3-3-3-3-|-5-5-5-5--5-5-5-5--2----------------|
E|-3-3-3-3-----------7-7-7-7----------|-3-3-3-3-----------0----------------|

Chorus 2
E|---------------------------------------|---------------------------------------|
B|----------------4-4----------------2-2-|----------------4-4----------------2-2-|
G|------5-5-------4-4--2-2-2-2--5-5--2-2-|------5-5-------4-4--2-2-2-2--5-5--2-2-|
D|-5-5--5-5--5-5--2-2--2-2-2-2--5-5--0-0-|-5-5--5-5--5-5--2-2--2-2-2-2--5-5--0-0-|
A|-5-5--3-3--5-5-------0-0-0-0--3-3------|-5-5--3-3--5-5-------0-0-0-0--3-3------|
E|-3-3-------3-3-------------------------|-3-3-------3-3-------------------------|

e|-------------------------------------------------------------------------------|
B|-------------------------------------------------------------------------------|
G|-------------------------------------------------------------------------------|
D|-5-5-5-5-5-5-5-5-5-5-5-5-------------------------------------------------------|
A|-5-5-5-5-5-5-5-5-5-5-5-5-------------------------------------------------------|
E|-3-3-3-3-3-3-3-3-3-3-3-3-------------------------------------------------------|
     ^   ^   ^   ^   ^   ^
(Piano Solo)

Outro (pretty much the same as pre chorus except no palm mute)
E|------------------------------------------------------------------------|
B|------------------------------------------------------------------------|
G|----------5-5-5-5-----------9-9-9-9-------------------5-5-5-5--7-7-7-7--|
D|-5-5-5-5--5-5-5-5--5-5-5-5--9-9-9-9--7-7-7-7-7-7-7-7--5-5-5-5--7-7-7-7--|
A|-5-5-5-5--3-3-3-3--5-5-5-5--7-7-7-7--7-7-7-7-7-7-7-7--3-3-3-3--5-5-5-5--|
E|-3-3-3-3-----------3-3-3-3-----------5-5-5-5-5-5-5-5--------------------|

Order

Intro
Verse
Verse part 2
Pre chorus
Chorus
Verse part 2
Verse
Pre chorus
Chorus 2
(Piano Solo)
Outro

(Verse)
I never thought about the universe,
It made me feel small
Never thought about the problems of this planet at all
Global warming, radioactive sights, imperialistic wrongs
And animal rights No!

(Pre Chorus)
Why think all the bad things when life is so good
Why (????????????) when there is always a could
Let the whales worry about the poisons in the sea
I've decided California - its foreign policy

I don't wont changes, unknown reactions
You're dilemmas are my distractions

(Chorus)
That's no way to go Franco un American
No way to go Franco un American
No way to go Franco un American
No way to go Franco, Franco un American

(Verse)
I never looked around, Never (???)
Then I read some how its in, now I always deep breathed
And now I can't sleep through years of apathy, all because
I read a little (?????????????)

(Pre Chorus)
I'm needed vegetation cos a fast food nation
Im wearing comfortable shoes cos of globalisation
Im watching Michael Moore expose the awful truth
Im listening to public enemy and raving youth

(Chorus 2)
I see no world peace, cos of (????????) forces
I eat no breath mints cos of (????????)
Now I cant believe what an absolute failure
The president laughing cos he voted for (?????)

(Piano Solo)
That's no way to go Franco un American
No way to go Franco un American
No way to go Franco un American
Where can we go Franco un American

(Outro)
I wanna (??????????????)
Or hang down low with the nice Australians
I don't wanna be another (????????)
What are we gonna do Franco, Franco un American

Sorry about the lyrics I don't have the CD so I wrote the lyrics by ear.

Rate this, if you like it, THANKS!
Suggest correction
comments
print report bad tab
9 comments total. Showing first comments.
0 reply
rank-n-file 110 May 13, 2005 08:00 PM

the tab is too long dude shorten it, but its good

0 reply
Huguette 10 Jun 06, 2005 08:00 PM

the missing lyrics are

.....no clue for first one

..I eat no breath mints cause they're from rear of horses
no i can't believe what an absolute failure
the president's laughing cause we voted for nader

...i wanna move north and be a canadian
and i think's that about it
Ps : I love billie joe

0 reply
simonnut 10 Aug 07, 2005 08:00 PM

(Verse)
I never thought about the universe,
It made me feel small
Never thought about the problems of this planet at all
Global warming, RADIOACTIVE SITES, imperialistic wrongs
And animal rights No!


(Pre Chorus)
Why think all the bad things when life is so good
Why (????????????) when there is always a could
Let the whales worry about the poisons in the sea
OUTSIDE OF California IS foreign policy

I don't wont changes, unknown reactions
You're dilemmas are my distractions

(Chorus)
That's no way to go Franco un American
No way to go Franco un American
No way to go Franco un American
No way to go Franco, Franco un American

(Verse)
I never looked around, Never SECOND GUESSED
Then I read some HOWARD?S END, now I always DEPRESSED
And now I can't sleep through years of apathy, all because
I read a little NOAM CHOMSKY (LITERATURE)

(Pre Chorus)
I'm needed vegetation cos a fast food nation
Im wearing comfortable shoes cos of globalisation
Im watching Michael Moore expose the awful truth
Im listening to public enemy and REAGAN YOUTH (BAND)

(Chorus 2)
I see no world peace, cos of ZEALOUS ARMED FORCES
I eat no FRESH MINCE ?COS I FONDLY LOVE HORSES
Now I cant believe what an absolute failure
The president?S laughing cos he voted for NADER (Ralph Nader? I?m not sure, I?m Australian..)

(Piano Solo)
That's no way to go Franco un American
No way to go Franco un American
No way to go Franco un American
Where can we go Franco un American

(Outro)
I wanna MOVE NORTH AND BE A CANADIAN
Or hang down low with the nice Australians
I don't wanna be another I-DON?T-CARE-ICAN
What are we gonna do Franco, Franco un American

guest
You may want to rate the tab now too:
select rating
Wanna post a correction for this tab? Suggest correction