Oops, an error
Loading. Please wait.

Gutter Tarts Chords

by NOFX
22 views 9 this week
no commentswrite comment
1 2 3 4 5
3 more votes to show rating
add to favorites
launch autoscroll
font size
0
reset
transpose
0
reset
display chords
guitar tuner
Autoscroll
slow
fast
+/-
esc
set tempo
stop
Help us to improve Ultimate-Guitar.com Take our survey!
×
Author
[Intro]
                                               x12
e||------------------------------------------||
B||------------------------------------------||
G||------------------------------------------||
D||--7-7-6-6-----6-6-------------------------||
A||----------4-4-----------------------------||
E||------------------------------------------||



[Verse 1]
A                           F#m
I don't care about how many fucks
A                          F#m
I'll suck an ass for fifty bucks
A                           B
Everybody here wants to get laid
E                                   F#m
We're the only ones who are getting paid

[Chorus]
            Dm
I'm getting fucked
            Dm
I'm sucking cock
            A
And getting paid

            Dm
I'm lickin' nuts
            Dm
I'm spankin' butts
            A
And getting paid

            Dm
We're being lude
            Dm
And getting nude
            Dm
And being screwed
            Dm
And blowin' dudes
            A
And getting paid

[Riff]
                                                   x8
e||------------------------------------------||
B||------------------------------------------||
G||------------------------------------------||
D||--7-7-6-6-----6-6-------------------------||
A||----------4-4-----------------------------||
E||------------------------------------------||

[Verse 2]
A                                   F#m
I'm doin' what I've always done for free
     A                         F#m
I'm doin' what comes so naturally
A                                   B
I'm not sellin' my body I'm renting parts
E                                  F#m
We're sidewalk sluts, we're gutter tarts

[Chorus]
           Dm
I'm tea bagin'
                          A
I'm playin' the rusty trombone
            Dm
I'm getting felt
                        A                      
I'm tossing salads overgrown

            Dm
We're being lude
            Dm
And getting nude
            Dm
And being screwed
            Dm
And blowin' dudes
            Fm
And scorin' drugs

[Outro]  
                                                 x7
e||------------------------------------------||
B||------------------------------------------||
G||------------------------------------------||
D||--7-7-6-6-----6-6-------------------------||
A||----------4-4-----------------------------||
E||------------------------------------------||

e||------------------------------------------||
B||------------------------------------------||
G||------------------------------------------||
D||--7-7-6-6-----6-6-7-----------------------||
A||----------4-4-----------------------------||
E||------------------------------------------||
Suggest correction
Give kudos to tab author, rate the tab!
1 2 3 4 5
comments
print report bad tab
guest
You may want to rate the tab now too:
select rating
Wanna post a correction for this tab? Suggest correction