Oops, an error
Loading. Please wait.

Happy Break Up Song bass

version 2
version 2

Whole song

by NOFX
437 views 3 this week
no commentswrite comment
1 2 3 4 5
3 more votes to show rating
add to favorites
×
Save as Personal and add changes to this tab that will be seen only by you. Learn more ›
×
You can save this tab as Personal to edit and correct it or add notes. All changes will be seen only by you. Learn more »
launch autoscroll
font size
0
reset
guitar tuner
edit
Autoscroll
slow
fast
+/-
esc
set tempo
stop
----------------------------------------------------------------------------
			 HAPPY BREAK-UP SONG - NOFX
----------------------------------------------------------------------------

First tab. The intro/verse might be 16th notes but I think 8th notes make more sense. 
the notes are right anyway.

INTRO:

G|------------------|-----------------|-----------------|------------------|
D|------------------|-----------------|-----------------|------------------|
A|------------------|-7-7-7-7-7-7-7-7-|-5-5-5-5-5-5-5-5-|-7-7-7-7-7-7-7-7--|
E|--5-5-5-5-5-5-5-5-|-----------------|-----------------|------------------|

play this once then the guitar plays this part:
e|------------------|-----------------|-----------------|------------------|
B|------------------|-----------------|-----------------|------------------|
G|--9-----9---7-6-7-|-9-----9---7-6-7-|-9-----9---7-6-7-|-9-----9---7-6-7--|
D|------7-----------|-----7-----------|-----7-----------|-----7------------|
A|------------------|-----------------|-----------------|------------------|
E|------------------|-----------------|-----------------|------------------|

play the intro riff over that 2x

VERSE:

G|------------------|-----------------|-----------------|------------------|
D|------------------|-----------------|-----------------|------------------|
A|------------------|-7-7-7-7-7-7-7-7-|-5-5-5-5-5-5-5-5-|-7-7-7-7-7-7-7-7--|
E|--5-5-5-5-5-5-5-5-|-----------------|-----------------|------------------|

same as the intro 4x

CHORUS:
(not completely sure about the timing here, just listen to the song)

G|------------------|-----------------|-----------------|------------------|
D|------------------|-----------------|-----------------|------------------|
A|------------------|-55--55--55--55--|-----------------|-55--55--55--55---|
E|--2---2-2-0---0-0-|-----------------|-2---2-2-0---0-0-|------------------|

G|------------------|-----------------|-----------------|------------------|
D|------------------|-----------------|-----------------|------------------|
A|------------------|-55--55--55--55--|-----------------|-5-------7--------|
E|--2---2-2-0---0-0-|-----------------|-2---2-2-0---0-0-|------------------|

play this once then play the intro riff 2x

verse 2x
chorus 1x
intro 2x
break
verse 2x

END:
G|------|
D|------|
A|--5---|
E|------|
Suggest correction
Creating personal tab
Creating personal tab
You can edit any tab online and save it as your Personal.

You can edit, replace or remove any tab part or add personal notes – all changes will be seen only by you.

Personal tabs can be accessed anytime from any device, even offline.
Learn more »
Give kudos to tab author, rate the tab!
1 2 3 4 5
comments
print report bad tab
guest
You may want to rate the tab now too:
select rating
Wanna post a correction for this tab? Suggest correction