Oops, an error
Loading. Please wait.
We have an official I Am An Alcoholic tab made by UG professional guitarists. Check out the tab »
×
by NOFX
5,215 views 3 this week
no commentswrite comment
1 2 3 4 5
1 last vote to show rating
add to favorites
×
Save as Personal and add changes to this tab that will be seen only by you. Learn more ›
×
You can save this tab as Personal to edit and correct it or add notes. All changes will be seen only by you. Learn more »
launch autoscroll
font size
0
reset
guitar tuner
edit
Autoscroll
slow
fast
+/-
esc
set tempo
stop
Author
+++++++++++++++++++++++++++
| NOFX- I Am An Alcoholic |
+++++++++++++++++++++++++++


"I won't cuz I'm a drug-addicted alcoholic..."

Tuning: Standard EADG



Intro
1.
G|---------------------------------------------------------------------------|
D|------------------7/9-7-5-7----------------------2-0---------0-2-4---------|
A|--3-2-0---5-3-2-0-----------7~--7~--7-9~---0-2-3-----3-2-0-2---------------|
E|-3------3----------------------------------------------------------3~--3~--|

2.
G|------------------------------------------------------------------------|
D|-------2-0------------------------------------0-------------------------|
A|-0-2-3-----3-2-0-2-0---0-7~--7~--7-9~-0-2-3-2---3-2-0-3-2-0-2/10~--10~--|
E|---------------------3--------------------------------------------------|

Verse
"I liked going to school..."
3.
G|-------------------------7-------------------------------------7~--------------|
D|-----------------7/9-7-9----------------------2-0-------------5----------------|
A|-3-2-0---5-3-2-0-----------7~--7~--7-9~-0-2-3-----3-2-0---------------------5~-|
E|-------3------------------------------------------------3-3-3-----3~--3~--3----|

"I had to get stuff done..."
4.
G|----------------------------------------------------------------------------------|
D|-------2-0------------------------------------0-----------------------------------|
A|-0-2-3-----3-2-0-2-0---0-7~--7~--7-9~-0-2-3-2---3-2-0-----------------------------|
E|---------------------3--------------------------------333333-333333-333333-333333-|

Chorus
"I'd like to see what morning looks like..."
5.
G|-------------------------------------------------------------|
D|-------------------------------------------------------------|
A|-3-3-2-2-000--------3-3-----000--------3-3-2-2-000-3~--------|
E|-------------3~-333-----3-3-----2~-222-----------------------|

"But I cant cuz Im a drug-abusing alcoholic..."
6.
G|----------------------------------------------------------------------------------|
D|----------------------------------------------------------------------------------|
A|-3x----22x----000--------3-3-2-2-000--------3-3-2-2-000--------3-3-2-2-000--------|
E|------------------3~-333-------------3~-333-------------3~-333-------------3~-333-|

Outro
7.
G|---------------------------------------------------------------------------|
D|------------------7/9-7-5-7----------------------2-0---------0-2-4---------|
A|--3-2-0---5-3-2-0-----------7~--7~--7-9~---0-2-3-----3-2-0-2---------------|
E|-3------3----------------------------------------------------------3~--3~--|

8.
G|------------------------------------------------------------------------|
D|-------2-0------------------------------------0-------------------------|
A|-0-2-3-----3-2-0-2-0---0-7~--7~--7-9~-0-2-3-2---3-2-0-3-2-0-2/10~--10~--|
E|---------------------3--------------------------------------------------|

Verse
"At 28 I realized..."
9.
G|-------------------------7-------------------------------------7~--------------|
D|-----------------7/9-7-9----------------------2-0-------------5----------------|
A|-3-2-0---5-3-2-0-----------7~--7~--7-9~-0-2-3-----3-2-0---------------------5~-|
E|-------3------------------------------------------------3-3-3-----3~--3~--3----|

"I decided to spend my life..."
10.
G|----------------------------------------------------------------------------------|
D|-------2-0------------------------------------0-----------------------------------|
A|-0-2-3-----3-2-0-2-0---0-7~--7~--7-9~-0-2-3-2---3-2-0-333333-333333---------------|
E|---------------------3----------------------------------------------333333-333333-|

Chorus
"And now I know what morning looks like..."
11.
G|-------------------------------------------------------------|
D|-------------------------------------------------------------|
A|-3-3-2-2-000--------3-3-----000--------3-3-2-2-000-3~--------|
E|-------------3~-333-----3-3-----2~-222-----------------------|

"But I wont cuz Im a drug-addicted alcoholic..."
12.
G|----------------------------------------------------------------------------------|
D|----------------------------------------------------------------------------------|
A|-3x----22x----000--------3-3-2-2-000--------3-3-2-2-000--------3-3-2-2-000--------|
E|------------------3~-333-------------3~-333-------------3~-333-------------3~-333-|

Outro
"Cant stop taking drugs..."
13.
G|------------------------------------------------------|
D|--------------------5~--------------------------------|
A|-3x----22x----0x--------------------------------------|
E|------------------------------------------------------|


Please rate thank you!!


Lyrics:

I liked going to school, 
I didn't want to fool around with drugs
Cuz all of my friends were dropping out
I had to get stuff done, I wasn't fun
I didn't try pot 'til I was 21, 
but now I'm overcompensating

I'd like to see what morning looks like
Don't wanna drink pint after pint
I wanna wake up without feeling sick
But I can't cuz I'm a drug-abusing alcoholic
I can't cuz I'm a drug-abusing alcoholic

At 28 I realized 
hydrocodone was pretty great
For hangovers and late night hangs
I decided to spend my life having the best of times
It's too bad most of them I'll probably forget

And now I know what morning looks like
But only when I greet it from the previous night
My friends are telling me that I need to find a clinic
But I won't cuz I'm a drug-addicted alcoholic
I won't cuz I'm a drug-addicted alcoholic

Can't stop taking drugs 



+++++++++++++++++++++++++++++++++
| RaiLeff                       |
| Underground__Dora@Hotmail.Com |
+++++++++++++++++++++++++++++++++

            
            
Suggest correction
Creating personal tab
Creating personal tab
You can edit any tab online and save it as your Personal.

You can edit, replace or remove any tab part or add personal notes – all changes will be seen only by you.

Personal tabs can be accessed anytime from any device, even offline.
Learn more »
Give kudos to tab author, rate the tab!
1 2 3 4 5
comments
print report bad tab
guest
You may want to rate the tab now too:
select rating
Wanna post a correction for this tab? Suggest correction