Oops, an error
Loading. Please wait.

I Believe In Goddess Bass Tab

version 1
version 1

Whole song

Interactive

by NOFX
3,825 views 12 this week
no commentswrite comment
1 2 3 4 5
please rate
add to favorites
launch autoscroll
font size
0
reset
guitar tuner
Tab Pro tools
  • play this tab
  • loop segment
  • change instrument
  • show fretboard
  • metronome
×
Best way to learn
"I Believe In Goddess"
Autoscroll
slow
fast
+/-
esc
set tempo
stop
Tab: Intro
G---------------------------------------­---------------------------|
D---------------------------------------­---------------------------|
A---------------------------------------­---------------------------|
E--0--0--0--0--3--0--3--5--2--2--3--2--1­--0--1--3------------------|
....E..............G.E.G.A.F#...G.F#.F..­E..F.G

G---------------------------------------­-----------------------|
D---------------------------------------­-----------------------|
A---------------------------------------­-----------------------|
E-0--0--0--0--3--0--3--5--2--2--3--2--0-­-0--0--0---------------|
....E..............G.E.G.A.F#...G.F#.E

Verse
G---------------------------------------­--------------------|
D---------------------------------------­--------------------|
A------------------------------5--5--5--­5-------------------|
E-0--0--0--0--3--3--3--3---------------0­--0--0--0-----------|
...E.............G...........D..........­..E.............

G---------------------------------------­---------------------|
D---------------------------------------­---------------------|
A------------------------------5--5--5--­5--7--7--7--7--------|
E-0--0--0--0--3--3--3--3----------------­---------------------|
...E.............G...........D..........­....E

G---------------------------------------­----------------------|
D---------------------------------------­----------------------|
A------------------------------5--5--5--­5--0--0--0--0---------|
E-0--0--0--0--3--3--3--3----------------­----------------------|
...E.............G...........D..........­...A

G---------------------------------------­-------------------|
D---------------------------------------­-------------------|
A-3--3--3--3---------------5--5--5--5---­-------------------|
E---------------3--3--3--3--------------­--0--0--0--0-------|
...C............G...........D...........­..E
comments
We did not receive enough feedback on this tab! Please rate:
print report bad tab
1 2 3 4 5
I want to post or [tab]
guest
You may want to rate the tab now too:
select rating
Please do not post tabs as comments. Select "correction" instead!