Oops, an error
Loading. Please wait.

I Want You To Want Me bass

version 1
version 1

Whole song

Interactive

by NOFX
1,278 views 1 this week
2 commentsread comments
1 2 3 4 5
2 more votes to show rating
add to favorites
×
Save as Personal and add changes to this tab that will be seen only by you. Learn more ›
×
You can save this tab as Personal to edit and correct it or add notes. All changes will be seen only by you. Learn more »
launch autoscroll
font size
0
reset
guitar tuner
edit
Autoscroll
slow
fast
+/-
esc
set tempo
stop
Author
+++++++++++++++++++++++++++++++
| NOFX- I Want You To Want Me |
+++++++++++++++++++++++++++++++

Tuning: EADG

Intro
"I want you to want me..."
1.
G|-------------------------------------------------------|
D|-7~-------6~---4~-------2~---0~---------------------2x-|
A|--------------------------------------4~---2~----------|
E|-------------------------------------------------------|

Verse
"I want you to want me..."
2.
G|-------------------------------------------------------------------------|
D|----------------------------------------------------------------22222222-|
A|-------------------------------------------------------------------------|
E|-55555555-55555555-55555555-44444444-22222222-22222222-22222222----------|

"Im begin' you to beg me..."
3.
G|-------------------------------------------------------------------------|
D|-------------------------------------------------------------------------|
A|-55555555-55555555-55555555-44444444-------------------------------------|
E|-------------------------------------55555555-55555555-55555555-44444444-|

Pre-Chorus
"Buy a brand-new shirt..."
4.
G|-------------------------------------------------------------------------------------|
D|-------------------------------------------------------------------------------------|
A|----------22222222----------00000000----------22222222-------------------------------|
E|-22222222----------33333333----------22222222----------33333333-33333333-22222222-2x-|

Chorus
"Didnt I, didnt I, didnt I see you crying?"
5.
G|-------------------------------------------------------------------------|
D|-------------------------------------------------------------------------|
A|-00000000-00000000-------------------------------------55555555-5555-4-2-|--x2
E|-------------------00xx00xx-00xx00xx-22222222-22222222-------------------|

Verse
"I want you to want me..."
6.
G|-------------------------------------------------------------------------|
D|----------------------------------------------------------------22222222-|
A|-------------------------------------------------------------------------|
E|-55555555-55555555-55555555-44444444-22222222-22222222-22222222----------|

"Im begin' you to beg me..."
7.
G|-------------------------------------------------------------------------|
D|-------------------------------------------------------------------------|
A|-55555555-55555555-55555555-44444444-------------------------------------|
E|-------------------------------------55555555-55555555-55555555-44444444-|

Pre-Chorus
"Buy a brand new shirt..."
8.
G|-------------------------------------------------------------------------------------|
D|-------------------------------------------------------------------------------------|
A|----------22222222----------00000000----------22222222-------------------------------|
E|-22222222----------33333333----------22222222----------33333333-33333333-22222222-2x-|

Chorus
"Didnt I, didnt I, didnt I see you crying?"
9.
G|-------------------------------------------------------------------------|
D|-------------------------------------------------------------------------|
A|-00000000-00000000-------------------------------------55555555-5555-4-2-|--x2
E|-------------------00xx00xx-00xx00xx-22222222-22222222-------------------|

Outro
"Oh yeah...."
10.
G|-------------------------------------------------------------------------|
D|----------------------------------------------------------------22222222-|
A|-------------------------------------------------------------------------|
E|-55555555-55555555-55555555-44444444-22222222-22222222-22222222----------|

11.
G|----------------------------------------------------------|
D|-------------------------------------------------------2x-|
A|-55555555-55555555-55555555-44444444-22222222-22222222----|
E|----------------------------------------------------------|

Lyrics:

I want you to want me
I need you to need me
I'm begin' you to beg me
And I want you now

Yea I want you to want me
I need you to need me
I'm begin' you to beg me
I'd love you to love me

Buy a brand-new shirt,put on brand-new shoes
I would do anything if you say
That you love me

Didn't I, didn't I, didn't I see you cryin'?
Didn't I, didn't I, didn't I see you cryin'?
Sitting all alone
I know you felt like dying
Didn't I, didn't I, didn't I see you cryin'?

And I want you NOW, Meghan...She don't eat...bacon. 
She'd never kill a sweet innocent little piggy to get bacon. 
She's one of them vegans. 
She's a sweet loving, sweet talking, loveable vegan...
and that's allright 

+++++++++++++++++++++++++++++++++
| RaiLeff                       |
| Underground__Dora@Hotmail.Com |
+++++++++++++++++++++++++++++++++
Suggest correction
Creating personal tab
Creating personal tab
You can edit any tab online and save it as your Personal.

You can edit, replace or remove any tab part or add personal notes – all changes will be seen only by you.

Personal tabs can be accessed anytime from any device, even offline.
Learn more »
Give kudos to tab author, rate the tab!
1 2 3 4 5
comments
print report bad tab
2 comments total.
0 reply
chunky bass 10 Dec 21, 2007 11:59 AM

omfg.. this is by far the best nofx song ever:)

and good tabbing btw

+1 reply
shmunk 10 Jan 01, 2010 07:12 AM

this isn't a nofx song, it's propagandhi's cover of 'i want you to want me'

guest
You may want to rate the tab now too:
select rating
Wanna post a correction for this tab? Suggest correction