Oops, an error
Loading. Please wait.

Im A Huge Fan Of Bad Religion bass

by NOFX
1,016 views 3 this week
no commentswrite comment
1 2 3 4 5
3 more votes to show rating
add to favorites
×
Save as Personal and add changes to this tab that will be seen only by you. Learn more ›
×
You can save this tab as Personal to edit and correct it or add notes. All changes will be seen only by you. Learn more »
launch autoscroll
font size
0
reset
guitar tuner
edit
Autoscroll
slow
fast
+/-
esc
set tempo
stop
Author
+++++++++++++++++++++++++++++++++++++++
| NOFX- Im A Huge Fan Of Bad Religion |
+++++++++++++++++++++++++++++++++++++++

If the song sounds weird than its right
It has a weird quarter step tuning
But this will work

Intro
1.
G|-------------------|
D|-------------------|
A|----------99999999-|
E|-22222222/---------|

Verse
"Im a huge fan of Bad Religion..."
2.
G|---------------------------------------------------------|
D|--------3x---3-0x---0------------------------------------|
A|-0x---0---------------0x---0-0x---0---------------3x---3-|
E|------------------------------------1x---1-3x---3--------|

Chorus
"Signing to Atlantic was a really bad decision..."
3.
G|-------------------------------------------------|
D|-------------------------------11111111-11111111-|
A|------3333------0000-----------------------------|
E|-1111------3333------1111-3333-------------------|

Verse
"I bought Suffer then I bought a thesaurus..." 
4.
G|---------------------------------------------------------|
D|--------3x---3-0x---0------------------------------------|
A|-0x---0---------------0x---0-0x---0---------------3x---3-|
E|------------------------------------1x---1-3x---3--------|

Chorus
"Now we hang out and party on each other's tour bus..."
5.
G|-------------------------------------------------|
D|-------------------------------------------------|
A|------3333------0000-----------00000000-00000000-|
E|-1111------3333------1111-3333-------------------|

Outro
"Ahh ahh...."
6.
G|----------------------------------------------------------------------------|
D|----------------------------------------------------------------------------|
A|------3333------0000-----------00000000-------------------------------0~----|
E|-1111------3333------1111-3333----------1111-3333-5553-1111-1111-3333-------|

Lyrics:

Im a huge fan of Bad Religion
I even bought a brown Fender Precision 
Signing to Atlantic was a really bad decision
Now they’re back on Epitaph hey

I bought Suffer then I bought a thesaurus
Then Graffin sang on S/M Airlines chorus
Now we hang out and party on each other’s tour bus
Cuz the old bands know how to have fun

+++++++++++++++++++++++++++++++++
| RaiLeff                       |
| Underground__Dora@Hotmail.Com |
+++++++++++++++++++++++++++++++++

            
            
Suggest correction
Creating personal tab
Creating personal tab
You can edit any tab online and save it as your Personal.

You can edit, replace or remove any tab part or add personal notes – all changes will be seen only by you.

Personal tabs can be accessed anytime from any device, even offline.
Learn more »
Give kudos to tab author, rate the tab!
1 2 3 4 5
comments
print report bad tab
guest
You may want to rate the tab now too:
select rating
Wanna post a correction for this tab? Suggest correction