Oops, an error
Loading. Please wait.

Kill All The White Men tab

version 3
version 3

Whole song

by NOFX
1,872 views 1 this week
1 commentread comment
1 2 3 4 5
1 last vote to show rating
add to favorites
×
Save as Personal and add changes to this tab that will be seen only by you. Learn more ›
×
You can save this tab as Personal to edit and correct it or add notes. All changes will be seen only by you. Learn more »
launch autoscroll
font size
0
reset
how to read this tab
guitar tuner
edit
Autoscroll
slow
fast
+/-
esc
set tempo
stop
Author
-------------------------------------------------------------------------------
                             Kill All The White Man - NoFX
-------------------------------------------------------------------------------
Tabbed by: Crash 2.0
Email: Crash26821atma@hotmail.com

Tuning: Standard EADGBE


Verse
E|--1-1-1-1-3-3-5-5--|
B|--1-1-1-1-3-3-5-5--|
G|-------------------|
D|-------------------|
A|-------------------|
E|-------------------|

Breakdown  Gtr.1
E|-----------------------------------------------------------------|
B|-----------------------------------------------------------------|
G|-----------------5555555555555555----------------3333333333333333|
D|-3333333333333333555555555555555555555555555555553333333333333333|
A|-3333333333333333333333333333333355555555555555551111111111111111|
E|-1111111111111111----------------3333333333333333----------------|
Gtr. 2 comes in after gtr 1 plays that once
E|-----------------------------------------------------------------|
B|-----------------------------------------------------------------|
G|10-10-10~~~~~~~~~9-9-9~~~~~~~~~~~7-7-7~~~~~~~~~~~10-10-10~~~~~~~~|
D|-x--x--x~~~~~~~~~x-x-x~~~~~~~~~~~x-x-x~~~~~~~~~~~~x--x--x~~~~~~~~|
A|-8--8--8~~~~~~~~~7-7-7~~~~~~~~~~~5-5-5~~~~~~~~~~~~8--8--8~~~~~~~~|
E|-----------------------------------------------------------------|

Outro: Both Guitars
E|------------------------|
B|------------------------|
G|5-------7---10----------|
D|5---5---7---10----------|
A|3---5---5----8----------|
E|----3-------------------|

            
            
Suggest correction
Creating personal tab
Creating personal tab
You can edit any tab online and save it as your Personal.

You can edit, replace or remove any tab part or add personal notes – all changes will be seen only by you.

Personal tabs can be accessed anytime from any device, even offline.
Learn more »
Give kudos to tab author, rate the tab!
1 2 3 4 5
comments
print report bad tab
1 comment total.
0 reply
greenparty49 31 Dec 07, 2008 07:13 AM

Probably the best kill all the white man tab on UG

guest
You may want to rate the tab now too:
select rating
Wanna post a correction for this tab? Suggest correction