Oops, an error
Loading. Please wait.

Leaving Jesusland tab

version 1
version 1

Whole song

Interactive

by NOFX
16,671 views 6 this week
2 commentsread comments
1 2 3 4 5
x 8
add to favorites
×
Save as Personal and add changes to this tab that will be seen only by you. Learn more ›
×
You can save this tab as Personal to edit and correct it or add notes. All changes will be seen only by you. Learn more »
launch autoscroll
font size
0
reset
how to read this tab
guitar tuner
edit
Autoscroll
slow
fast
+/-
esc
set tempo
stop
-------------------------------------------------------------------------------
                             NOFX - Leaving Jesusland
-------------------------------------------------------------------------------
Tabbed by: Matthew Holmes Bennett

Tuning: Standard

Verse (Palm Mute)
e|--------------------|
B|--------------------|
G|--------------------|
D|--7--3--5--2--6--7--|
A|--7--3--5--2--6--7--|
E|--5--1--3--0--4--5--|

Pre-Chorus
e|------------------------|
B|------------------------|
G|--10--10--x--x--10--10--|
D|--10--10--x--x--10--10--|
A|--8---8---x--x--8---8---|
E|------------------------|

Chorus
e|--------------------------------------|
B|--------------------------------------|
G|---------10--------5----9-----10------|
D|--7--10--10--5--3--5----9--7--10--10--|
A|--7--10--8---5--3--3----7--7--8---10--|
E|--5--8-------3--1----------5------8---|

Bridge
e|------------------------------|
B|------------------------------|
G|--10------10--17--16--14--12--|
D|--10--10--10------------------|
A|--8---10--8---15--14--12--10--|
E|------8-----------------------|

Guitar 1
e|-----------------------------------------------------------------------------|
B|-----------------------------------------------------------------------------|
G|--14--16--17--16--14--12--14--16--17--16--14--12--14--16--17--16--14--12--14-|
D|-----------------------------------------------------------------------------|
A|--12--14--15--14--12--10--12--14--15--14--12--10--12--14--15--14--12--10--12-|
E|-----------------------------------------------------------------------------|

Guitar 2
e|---------------------------------------------------------------|
B|---------------------------------------------------------------|
G|---------------------------------------------------------------|
D|--------2---------------2--3---------------------------2--(2)--|
A|--3--5-----3------3--5-----------3--5--3--5------3--5----------|
E|---------------------------------------------------------------|


| /  slide up
| \  slide down
| h  hammer-on
| p  pull-off
| ~  vibrato
| +  harmonic
| x  Mute note
===============================================================================

            
            
Suggest correction
Creating personal tab
Creating personal tab
You can edit any tab online and save it as your Personal.

You can edit, replace or remove any tab part or add personal notes – all changes will be seen only by you.

Personal tabs can be accessed anytime from any device, even offline.
Learn more »
comments
print report bad tab
2 comments total.
0 reply
Tster 441 Dec 22, 2007 12:14 AM

seems pretty good man!
its awesome!

0 reply
ChazBcWarlock 170 Aug 05, 2008 08:05 AM

its good

you should mention the pick slide at the end of the pre chorus

guest
Wanna post a correction for this tab? Suggest correction