Oops, an error
Loading. Please wait.
We have an official Liza And Louise tab made by UG professional guitarists. Check out the tab »
×
by NOFX
10,451 views 21 this week
3 commentsread comments
1 2 3 4 5
x 4
add to favorites
×
Save as Personal and add changes to this tab that will be seen only by you. Learn more ›
×
You can save this tab as Personal to edit and correct it or add notes. All changes will be seen only by you. Learn more »
launch autoscroll
font size
0
reset
how to read this tab
guitar tuner
edit
Autoscroll
slow
fast
+/-
esc
set tempo
stop
Author
--------------------------------------------------------------
NOFX - Liza and Louise 
White Trash, Two Heebs and a Bean (1992) transcribed by helen
--------------------------------------------------------------
I couldnt find a version of this song with these parts in it so i made it myself! enjoy

Intro

e|-------12------------------|
B|-14b-----14-14-12----------|
G|----14------------14p11h14-|
D|---------------------------|
A|---------------------------|
E|---------------------------|

e|-----------------------------------------------------------|
B|---------------------14-14---14---14-----------------------|
G|------------14-16-16-------16---16---16--16p14-14h16-14h16-|
D|-------14h16-----------------------------------------------|
A|-14h16-----------------------------------------------------|
E|-----------------------------------------------------------|

e|--------------------------------------------------------------|
B|--------------------------------------------------------------|
G|-14-----------------------------------------------------------|
D|----16-14-----------------------------------------------------|
A|---------16-14h16-14h16-—12h14-12---(12)---Liza's had enough..|
E|----------------------------------14--------------------------|


Solo 

And you know she wanted more...
	
e|-14b-14-12b----------------12---------------------------------|
B|-----------14p13-14p13---14—-14-14-14-------------------------|
G|----------------------14------------------14p11-14--11--------|
D|-------------------------------------------------------14-----|
A|--------------------------------------------------------------|
E|--------------------------------------------------------------|
	
e|----------------------------------------14-14-12--------------|
B|----------------------------------14-17---------14-13-12------|
G|----------14----14---14---14---14-----------------------14----|
D|----14h16-----16---16---16------------------------------------|
A|--------------------------------------------------------------|
E|--------------------------------------------------------------|


e|--------------------------------------------------------------|
G|-----14-14-14p12----------------------------------------------|
B|-11---------------14p11-14------------------------------------|
D|--------------------------------------------------------------|
A|--------------------------------------------------------------|
E|--------------------------------------------------------------|

            
            
Suggest correction
Creating personal tab
Creating personal tab
You can edit any tab online and save it as your Personal.

You can edit, replace or remove any tab part or add personal notes – all changes will be seen only by you.

Personal tabs can be accessed anytime from any device, even offline.
Learn more »
comments
print report bad tab
3 comments total.
0 reply
EggNoggy 337 Jun 01, 2006 03:52 PM

the first note is off

its 15b

0 reply
closmurda 31 Jan 26, 2007 04:42 PM

actually i think it should be 13b

0 reply
Tster 441 Jun 07, 2008 03:54 AM

this is alright

guest
You may want to rate the tab now too:
select rating
Wanna post a correction for this tab? Suggest correction