Oops, an error
Loading. Please wait.

Medio-Core bass

version 1
version 1

Whole song

Interactive

by NOFX
1,101 views 3 this week
1 commentread comment
1 2 3 4 5
1 last vote to show rating
add to favorites
×
Save as Personal and add changes to this tab that will be seen only by you. Learn more ›
×
You can save this tab as Personal to edit and correct it or add notes. All changes will be seen only by you. Learn more »
launch autoscroll
font size
0
reset
guitar tuner
edit
Autoscroll
slow
fast
+/-
esc
set tempo
stop
MEDIO-CORE by NOFX. Album : War on Errorism (2003)                      
Hey fellas!! Time to kick some new ass! Some incredibly fine lines in this
one!!
!FOR MORE ACCURATE NOFX BASS TABS, VISIT www.jiihootabs.cjb.net!
# intro # 0:11
G--------------------------------------------------------------|
D------12------12------11------11------10------10--------------|
A--10--------10--10-10-------10--10-10-------10--10-10---------|
E--------------------------------------------------------------|
:
# verse # X2 !õ=10! *=play 7X #=play 3-4X
G--------------------------------------------5*----------#---#---#--|
D------------------------------------*---------------#--1---3---5---|
A----*-----/õõõõõ98--*-----/õõõõõ98-3-------3-------3---------------|
E---3---------------3-----------------------------------------------|
:                                                               
# end-verse #
G---------------------------------------------| 
D---------------------------------------------| 
A-----0-2-3-5-3-2-3-0---0-2-3-2-0-2-5---5-5-5-| 
E---3-----------------3-----------------------| 
:       
# chorus # *=play 8X #=play 5X %=pause                              >
G-|----------------12-------------|---------------------------------> 
D-|--------------12-----7---9---7-|10---9--10---910-----9---7---9---> 
A-|10--10--10--10-----------------|---------------------------------> 
E-|----------------|3X|-----------|---------------------------------> 
>chorus
>-----------------------------| 
>--------------------#--------| > Then play verse (!without last note and
>----*--------------5---------|   2nd last note only once!).
>---3-------------------------| 
:             !distortion!
# verse2 # X2 !õ=10! *=play 6-7X #=play 3-4X |!1 and 3 not 13!      >
G------------------------------------------------------------------->
D------------------------------------*--------*------#------------8->
A----*-----/õõõõõ98--*-----/õõõõõ98-3-------13------3---36-8-6-88õ-->
E---3---------------3----------------------------------------------->
>verse2
>-------------------------------------------------------------------|
>------------------------------------*--------*---------1---------8-|
>----*-----/õõõõõ98--*-----/õõõõõ98-3-------13------13-3-336-8-68õ--|
>---3---------------3-----------------------------------------------|
:
# end-verse2 # "=play 2X !õ=10! +=play 16X !distortion in the beginning!
G-------------------------------------------------------------------| 
D--------------------+-------+-------+-------+-------+-------+------| 
A-------6-6-----8-8-õ-------9-------7-------5-------3-------5-------| 
E---3-3-----6-6-----------------------------------------------------| 
!FOR MORE ACCURATE NOFX BASS TABS, VISIT www.jiihootabs.cjb.net!
# medio-core # *=play 5-7X #=play 3X +=play 12X                     >
G-------------------------------------------------------------------> 
D----+---------------+---------------+---------------+--------------> 
A--10--------------10---------------3---------------3---------------> 
E-------------------------------------------------------------------> 
>medio-core                                                         >
>------------------------------------------------------------------->
>----*---------------*---------------+---------------*--------------> 
>-/10------\-*----/10------\-*------3---------------3------6-8-68-õ-> 
>-----------3---------------3--------------------------------------->
>medio-core
>-----------------------------------------------| 
>------------*-------*-------*-------*----------| 
>----*------5-------0-------3-------5-------5-\\| 
>---3-------------------------------------------| 
:
# chorus2+outro # *=play 8X #=play 5X %=pause                       >
G-|----------------12-------------|---------------------------------> 
D-|--------------12-----7---9---7-|10---9---7---5-------------------> 
A-|10--10--10--10-----------------|---------------3---3-2-----------> 
E-|----------------|3X|-----------|-------------------------5---3---> 
>chorus2+outro                                                      >
>-------------------------------------------------------------------> 
>------12--10---9---------------9---0--12--10---9---------------9---> 
>--10--------------12--10--12----------------------12--10--12-------> 
>------------------------------------------------------------------->
>chorus2+outro                                                      >
>-|----------------12-------------|---------------------------------> 
>-|--------------12-----7---9---7-|10---9---7---5-------------------> 
>-|10--10--10--10-----------------|---------------3---3-2-----------> 
>-|----------------|3X|-----------|-------------------------5---3--->
>chorus2+outro                                                      
>---------------------------------------------------------------------------|
>---------------------------------------------------------------------------| 
>-------5---3---2---0-------0---2---5---3---2---0-------0---2---3-----------| 
>---3-------------------3---------------------------3---------------3-------| 
!FOR MORE ACCURATE NOFX BASS TABS, VISIT www.jiihootabs.cjb.net!
You're wrong Fat Mike! This song is far from casual.
Tabbed by Jussi Heinonen 28.10.2003.
Suggest correction
Creating personal tab
Creating personal tab
You can edit any tab online and save it as your Personal.

You can edit, replace or remove any tab part or add personal notes – all changes will be seen only by you.

Personal tabs can be accessed anytime from any device, even offline.
Learn more »
Give kudos to tab author, rate the tab!
1 2 3 4 5
comments
print report bad tab
1 comment total.
0 reply
LoDennis 135 Jun 16, 2010 11:57 AM

haha, this awesome.
This tab is sooooooooo right!!
thanks, i think you must have pretty good ears... :P

guest
Wanna post a correction for this tab? Suggest correction