Oops, an error
Loading. Please wait.

My Heart Is Yearning bass

version 1
version 1

Whole song

Interactive

by NOFX
1,137 views 3 this week
2 commentsread comments
1 2 3 4 5
x 3
add to favorites
×
Save as Personal and add changes to this tab that will be seen only by you. Learn more ›
×
You can save this tab as Personal to edit and correct it or add notes. All changes will be seen only by you. Learn more »
launch autoscroll
font size
0
reset
guitar tuner
edit
Autoscroll
slow
fast
+/-
esc
set tempo
stop
                           My Heart Is Yearning

 NoFX

By: Emanuel Hillberg
manne.hillberg@tierp.mail.telia.com

G|--22-00----------------------1-------------------020------------------------------------------|
D|---------22-00-------00-22------2-----333-2-0-2-------0-2-3-2-0----0-2---0-2-3-2-0------------|
A|----------------33-----------------3-----------------------------3------------------3-2-------|
E|----------------------------------------------------------------------------------------------|

G|--22-00-------------------1--------------------020--------------------------------------------|
D|---------22-00----00-22------2-320--333-2-0-2-------0-2-3-2-0-----0-2---0-2-3-2-0-------------|
A|---------------33---------------------------------------------3--------------------3-2--------|
E|----------------------------------------------------------------------------------------------|

Suggest correction
Creating personal tab
Creating personal tab
You can edit any tab online and save it as your Personal.

You can edit, replace or remove any tab part or add personal notes – all changes will be seen only by you.

Personal tabs can be accessed anytime from any device, even offline.
Learn more »
Give kudos to tab author, rate the tab!
1 2 3 4 5
comments
print report bad tab
2 comments total.
0 reply
myke.sanders 10 May 19, 2015 07:43 AM, edited at 11:43 am

G|--44-22----------------2-----------------2-4-2~-----------------------|
D|--------44-22-00-22-44--4-0~-----542024/5------24/542024--24/5420-----|
A|------------------------------------------------------------------4---|
E|----------------------------------------------------------------------|

G|--44-22----------------2-----------------2-4-2~-----------------------|
D|--------44-22-00-22-44--4/5-4-2~-542024/5------24/542024--24/5420-----|
A|------------------------------------------------------------------4---|
E|----------------------------------------------------------------------|

0 reply
myke.sanders 10 May 19, 2015 07:44 AM

this is the correct way to play it

guest
Wanna post a correction for this tab? Suggest correction