Oops, an error
Loading. Please wait.

My Heart Is Yearning Tab

version 1
version 1

Whole song

Interactive

by NOFX
4,952 views 3 this week
1 commentread comment
1 2 3 4 5
please rate
add to favorites
launch autoscroll
font size
0
reset
how to read this tab
guitar tuner
Tab Pro tools
  • play this tab
  • loop segment
  • change instrument
  • show fretboard
  • metronome
×
Best way to learn
"My Heart Is Yearning"
Autoscroll
slow
fast
+/-
esc
set tempo
stop
Contributor
Artist:Nofx
Song:My Heart Is Yearning
Tabbed By:Sammyboy123
Tuning:EADGBE

Im Not Very Good At Tabbing But Hey I Tried

E--------------------------------------------|
B--------------------------------------------|
G-------7--7--7--7---7--7--6--6--7--7--7--7--|
D-----9--9--9------9--9--7--7---5--5--5------|
A--------------------------------------------|
E--------------------------------------------|

E-----------------------------------------|
B-----------------------------------------|
G----7--7--7-7---6--6--6--6--6--6--7--7---|
D--5--5--4--4--7--7--7------7--7--5--5----|
A-----------------------------------------|
E-----------------------------------------|

E-----------------------------------------|
B-----------------------------------------|
G----6--6--6--6---6--6--6--6--------------|
D--4--4--4------4--4--4--4----------------|
A-----------------------------------------|
E-----------------------------------------|

E-----------------------------------------|
B-----------------------------------------|
G----7--7--7--7---7--7--6--6--------------|
D--9--9--9------9--9--7--7----------------|
A-----------------------------------------|
E-----------------------------------------|


   Rings Out Behind Above Riff
E--7---------------------------------------|
B--7---------------------------------------|
G--7---------------------------------------|
D--9---------------------------------------|
A--9---------------------------------------|
E--7---------------------------------------|


E-------------------------------------------|
B-------------------------------------------|
G-----7--7--7--7---7--7--7--7---------------|
D---5--5--5------5--5--4--4-----------------|
A-------------------------------------------|
E-------------------------------------------|

  Rings Out
E--3-----------------------------------------|
B--3-----------------------------------------|
G--4-----------------------------------------|
D--5-----------------------------------------|
A--5-----------------------------------------|
E--3-----------------------------------------|

E-------------------------------------------|
B-------------------------------------------|
G----6--6--6--6---6--6--7--7----------------|
D--7--7--7------7--7--5--5------------------|
A-------------------------------------------|
E-------------------------------------------|

 Rings Out
E-5------------------------------------------|
B-5------------------------------------------|
G-6------------------------------------------|
D-7------------------------------------------|
A-7------------------------------------------|
E-5------------------------------------------|

E-----------------------------------------|
B-----------------------------------------|
G----6--6--6--6---6--6--6--6--------------|
D--4--4--4------4--4--4--4----------------|
A-----------------------------------------|
E-----------------------------------------|

rings out
E-2------------------------------------------|
B-2------------------------------------------|
G-3------------------------------------------|
D-4------------------------------------------|
A-4------------------------------------------|
E-2------------------------------------------|


Guitar One Plays This
E--------------------------------------------|
B--------------------------------------------|
G-------7--7--7--7---7--7--6--6--------------|
D-----9--9--9------9--9--7--7----------------|
A--------------------------------------------|
E--------------------------------------------|

E-----------------------------------------|
B-----------------------------------------|
G----7--7--7--7--7--7--7--7---------------|
D--5--5--5-----5--5--4--4-----------------|
A-----------------------------------------|
E-----------------------------------------|

E-----------------------------------------|
B-----------------------------------------|
G----6--6--6--6---6--6--7--7--------------|
D--7--7--7------7--7--5--5----------------|
A-----------------------------------------|
E-----------------------------------------|

E-----------------------------------------|
B-----------------------------------------|
G----6--6--6--6---6--6--6--6--------------|
D--4--4--4------4--4--4--4----------------|
A-----------------------------------------|
E-----------------------------------------|


Guitar 2 Plays This
E---------------------------------------------|
B---------------------------------------------|
G---4-4-2-2--------------------2--------------|
D-----------4-4-2-2-0-0-2-2-4-4-4--0----------|
A---------------------------------------------|
E---------------------------------------------|

E-------------------------------------------|
B-------------------------------------------|
G-------------------------------------------|
D------5-5-4-2-0-2-4-5--7--9-7--------------|
A-------------------------------------------|
E-------------------------------------------|

E-------------------------------------------|
B-------------------------------------------|
G-------------------------------------------|
D------2-4-5-4-2-0-2--4---------------------|
A-------------------------------------------|
E-------------------------------------------|

E-----------------------------------------|
B-----------------------------------------|
G-----------------------------------------|
D----------2-4-5-4-2-0--------------------|
A------------------------4----------------|
E-----------------------------------------|

 Guitar 3 Plays This
E-----7------7------7-----7-----------------|
B-----7------7------7-----7-----------------|
G-----7------7------7-----7-----------------|
D-----9------9------9-----9-----------------|
A-------------------------------------------|
E-------------------------------------------|

E---7---7-7-7-7--7--7--7-------------------|
B---8---8-8-8-8--8--8--8-------------------|
G---7---7-7-7-7--7--7--7-------------------|
D---9---9-9-9-9--9--9--9-------------------|
A------------------------------------------|
E------------------------------------------|

E--9---9--9--9--9----9---9--9--9--9---------|
B--10--10-10-10-10---10--10-10-10-10--------|
G--9---9--9--9--9----9---9--9--9--9---------|
D--11--11-11-11-11---11--11-11-11-11--------|
A-------------------------------------------|
E-------------------------------------------|

E--6----6----6----6---------------------------|
B--7----7----7----7---------------------------|
G--6----6----6----6---------------------------|
D--8----8----8----8---------------------------|
A---------------------------------------------|
E---------------------------------------------|
Thats All I can Be Bothered Tabbing Out
The Rest Is Just Repeats Of The riffs Above
Hope This Helps
comments
We did not receive enough feedback on this tab! Please rate:
print report bad tab
1 2 3 4 5
1 comment total.
0 reply
guitarheroII wrote on August 19 2008, 07:44 pm

Grrrreat tab. Hefe would be proud. 5 stars

I want to post or [tab]
guest
You may want to rate the tab now too:
select rating
Please do not post tabs as comments. Select "correction" instead!