Oops, an error
Loading. Please wait.
We have an official My Orphan Year tab made by UG professional guitarists. Check out the tab »
×
by NOFX
1,954 views 6 this week
2 commentsread comments
1 2 3 4 5
x 4
add to favorites
×
Save as Personal and add changes to this tab that will be seen only by you. Learn more ›
×
You can save this tab as Personal to edit and correct it or add notes. All changes will be seen only by you. Learn more »
launch autoscroll
font size
0
reset
guitar tuner
edit
Autoscroll
slow
fast
+/-
esc
set tempo
stop
Author
NOFX - My Orphan Year

Listen to the song for timing :).

Intro
G|-------------|
D|-------------|
A|-----6~--5~--|
E|-2~----------|

Intro 2
G|--------------------------------------------------------------------|
D|--------------------------------------------------------------------|
A|--------------------------------------------------------------------|
E|--55555555555555555555555555555555-22222222222222222222222222222222-|

G|-----------------------------------|
D|-----------------------------------|
A|-55555555555555555555555555555555--|
E|-----------------------------------|

Verse x2
G|-------------------------------------------------------------------------|
D|-------------------------------------44444444444444444-------------------|
A|-------------------44444444444444444-------------------5555555555555555--|
E|-55555555555555555-------------------------------------------------------|

G|--------------------------------------------------------------------------|
D|--------------------------------------------------------------------------|
A|-2222222222222222-5555555555555555----------------------------------------|
E|-----------------------------------55555555-44444444-22222222-------------|

G|------------------------------------|
D|------------------------------------|
A|-2222222222222222-5555555555555555--|
E|------------------------------------|

Chorus
G|----------------------------------------------------------------------| x2
D|----------------------------------------------------------------------|
A|------------------7777777777777777------------------5555555555555555--|
E|-5555555555555555------------------7777777777777777-------------------|

Bridge (14’s not 4’s and 1’s)
G|-----------------------------------------------------------------------------------|
D|-----------------------------------------------------------------------------------|
A|-----------------------------------------------------------------------------------|
E|-555555555555555555555555555544442222222222222222/14141414141414141414141412121212-|

G|-----------------------------------|
D|-----------------------------------|
A|-22222222222222222222222222222222--|
E|-----------------------------------|

G|-------------------------------------------------------------------|
D|-------------------------------------------------------------------|
A|-------------------------------------------------------------------|
E|-5555555555555555555555555555444422222222222222222222222222220000--|

G|------------------------------------------------|
D|------------------------------------------------|
A|-55555555555555555555555555555555---------------|
E|------------------------------------------------|

Outro
G|--------------|
D|--------------|
A|----6~--5~----|
E|-5~--------2~-|

Any suggestions, just comment :)
Suggest correction
Creating personal tab
Creating personal tab
You can edit any tab online and save it as your Personal.

You can edit, replace or remove any tab part or add personal notes – all changes will be seen only by you.

Personal tabs can be accessed anytime from any device, even offline.
Learn more »
comments
print report bad tab
2 comments total.
0 reply
coball75 10 Jan 20, 2013 03:46 PM

you should tab 72 hookers by nofx

0 reply
punk28 10 Jul 15, 2014 07:20 PM

the outro is slightly incorrect. but mostly accurate and awesome!

guest
You may want to rate the tab now too:
select rating
Wanna post a correction for this tab? Suggest correction