Oops, an error
Loading. Please wait.

One Celled Creature bass

version 2
version 2

Whole song

Interactive

by NOFX
145 views 1 this week
no commentswrite comment
1 2 3 4 5
3 more votes to show rating
add to favorites
×
Save as Personal and add changes to this tab that will be seen only by you. Learn more ›
×
You can save this tab as Personal to edit and correct it or add notes. All changes will be seen only by you. Learn more »
launch autoscroll
font size
0
reset
guitar tuner
edit
Autoscroll
slow
fast
+/-
esc
set tempo
stop
Author
Difficulty
Tabbed by J Shrimp
One Celled Creature - NoFX

Here's how I play it when in my band
Sometimes, I will substitute 8th fret note for 3rd fret on the D string.  If I'm on 
stage and rocking out, it's easier to keep my hand there, but if I'm tired toward the end, I 
go up to the 8th for cleaner sound and the slide to it looks cool when I'm just standing around.
Drum Intro

Main
G:------------------------------------------------------------------------------------|
D:------------------------------------------------------------------------------------|
A:----5-5-5-5-5-5-5-5-5-5-5-5-8-8-8-8-8-8-8-8-8-8-8-8---------------------------------|
E:------------------------------------------------------------------------------------|


G:-----------------------------------------------------------------------------------|3x
D:-----------------------------------------------------------------------------------|
A:---3-3-3-3-3-3-3-3-3-3-3-3-3-3-3-3-3-3---------------------------------------------|
E:---------------------------------------------------1-1-1-0-1-0---------------------|

1x ringing the notes out til the last part
G:-----------------------------------------------------------------I------------------|
D:----------------------------------------------------------------\/------------------|
A:---5----------------8----------------3----------------------------------------------|
E:--------------------------------------------------------------------1-1-1-0-1-0-----|

Main 2x

Whew!  Worked up a sweat playing that!

            
            
Suggest correction
Creating personal tab
Creating personal tab
You can edit any tab online and save it as your Personal.

You can edit, replace or remove any tab part or add personal notes – all changes will be seen only by you.

Personal tabs can be accessed anytime from any device, even offline.
Learn more »
Give kudos to tab author, rate the tab!
1 2 3 4 5
comments
print report bad tab
guest
You may want to rate the tab now too:
select rating
Wanna post a correction for this tab? Suggest correction