Oops, an error
Loading. Please wait.

One Million Coasters bass

version 1
version 1

Whole song

Interactive

by NOFX
625 views 1 this week
no commentswrite comment
1 2 3 4 5
3 more votes to show rating
add to favorites
×
Save as Personal and add changes to this tab that will be seen only by you. Learn more ›
×
You can save this tab as Personal to edit and correct it or add notes. All changes will be seen only by you. Learn more »
launch autoscroll
font size
0
reset
guitar tuner
edit
Autoscroll
slow
fast
+/-
esc
set tempo
stop
Author
++++++++++++++++++++++++++++++
| NOFX- One Million Coasters |
++++++++++++++++++++++++++++++


"They make great Christmas tree ornaments..."

Tuning: Standard EADG


Intro
1.
G|---------------------------------------------------------------|
D|-------------0~-0~-0~--0000x-----------------------------------|
A|-3~-3~-3~-----------------------------------0~-0~-0~--0000x----|
E|--------------------------------3~-3~-3~-----------------------|

2.
G|--------------------------------------------------------------------|
D|-3~-5~-7~-5-3-5-2~-3~-5~--5555x----3~-2~-0~----------0~----0000x----|
A|-----------------------------------------------2~-3~----------------|
E|--------------------------------------------------------------------|

Verse
"Coasters and frisbees..."
3.
G|--------------------------------------------------------------------------|
D|-------------------------------------33-333-33333-333-355-555-55555-555-5-|
A|-33-333-33333-333-300-000-00000-000-0-------------------------------------|--x2
E|--------------------------------------------------------------------------|

Chorus
"Bring your family..."
4.
G|------------------------------------------------------------------|
D|-----------------00-000-000-000-0---------------------------------|
A|-33-333-333-333-3--------------------------------00-000-000-000-0-|
E|---------------------------------33-333-333-333-3-----------------|

"Blank floppy disks..."
5.
G|------------------------------------------------------------------|
D|-33-333-333-333-322-222-222-222-233-333-333-333-355-555-555-555-5-|
A|------------------------------------------------------------------|
E|------------------------------------------------------------------|

Outro
6.
G|---------------------------------------|
D|--------------------3~-2~-0~-----------|
A|-3~-3~-3~--3333x--------------3333x----|
E|---------------------------------------|

Verse
"Guard rail reflectors..."
7.
G|--------------------------------------------------------------------------|
D|-------------------------------------33-333-33333-333-355-555-55555-555-5-|
A|-33-333-33333-333-300-000-00000-000-0-------------------------------------|--x2
E|--------------------------------------------------------------------------|

Chorus
"Full of cassete tapes..."
8.
G|------------------------------------------------------------------|
D|-----------------00-000-000-000-0---------------------------------|
A|-33-333-333-333-3--------------------------------00-000-000-000-0-|
E|---------------------------------33-333-333-333-3-----------------|

"Kodak 110's..."
9.
G|------------------------------------------------------------------|
D|-33-333-333-333-322-222-222-222-233-333-333-333-355-555-555-555-5-|
A|------------------------------------------------------------------|
E|------------------------------------------------------------------|

Outro
10.
G|---------------------------------------------------------------|
D|-------------0~-0~-0~--0000x-----------------------------------|
A|-3~-3~-3~-----------------------------------0~-0~-0~--0000x----|
E|--------------------------------3~-3~-3~-----------------------|

11.
G|--------------------------------------------------------------------|
D|-3~-5~-7~-5-3-5-2~-3~-5~--5555x----3~-2~-0~----------0~----0000x----|
A|-----------------------------------------------2~-3~----------------|
E|--------------------------------------------------------------------|


Lyrics:

Coasters and Frisbees
Fish lures for deep seas
Mobiles for infants
They make great Christmas tree ornaments

Bring the whole family, parking is free
You're going to love our selection 
of 8-track tapes,
Blank floppy discs, mobile car phones, 
Atari 2600 consoles

Guard rail reflectors
Hold 'em hand protectors
Halloween handouts
We got a ten-thousand foot warehouse
Full of cassette tapes, persimmon woods,
Ink jet printers, telephone booths,
Sony Walkman's, Kodak 110's,
Analog TV's, Betamax's
And 10 million CD's 



+++++++++++++++++++++++++++++++++
| RaiLeff                       |
| Underground__Dora@Hotmail.Com |
+++++++++++++++++++++++++++++++++
Suggest correction
Creating personal tab
Creating personal tab
You can edit any tab online and save it as your Personal.

You can edit, replace or remove any tab part or add personal notes – all changes will be seen only by you.

Personal tabs can be accessed anytime from any device, even offline.
Learn more »
Give kudos to tab author, rate the tab!
1 2 3 4 5
comments
print report bad tab
guest
You may want to rate the tab now too:
select rating
Wanna post a correction for this tab? Suggest correction