Oops, an error
Loading. Please wait.

One Way Ticket To Neckville bass

by NOFX
621 views 1 this week
no commentswrite comment
1 2 3 4 5
3 more votes to show rating
add to favorites
×
Save as Personal and add changes to this tab that will be seen only by you. Learn more ›
×
You can save this tab as Personal to edit and correct it or add notes. All changes will be seen only by you. Learn more »
launch autoscroll
font size
0
reset
guitar tuner
edit
Autoscroll
slow
fast
+/-
esc
set tempo
stop
Author
+++++++++++++++++++++++++++++++++++++++++
| NOFX- One Way Ticket To Fuckneckville |
+++++++++++++++++++++++++++++++++++++++++

Tuning: EADG

Intro
1.
G|-------------------------------------------------------------------------|
D|-------------------------------------------------------------------------|
A|-33333333-33333333-22222222-22222222-------------------------------------|--x2
E|-------------------------------------11111111-11111111-33333333-33333333-|

Verse
"No sleep 'til Fuckneckville..."
2.
G|-------------------------------------------------------------------------|
D|-------------------------------------------------------------------------|
A|-33333333-33333333-22222222-22222222-------------------------------------|
E|-------------------------------------11111111-11111111-33333333-3333--3--|

3.
G|-------------------------------------------------------------------------|
D|-------------------------------------------------------------------------|
A|-33333333-33333333-22222222-22222222-------------------------------------|
E|-------------------------------------11111111-11111111-33333333-33333333-|

Pre-Chorus
"One way ticket to seclusion..."
4.
G|-------------------------------------------------------------------------|
D|-xx0-xx0-xx0-xx0---------------------------------------------------------|
A|-------------------------------------33333333-33333333-33333333-33333333-|--x2
E|-------------------11111111-11111111-------------------------------------|

Chorus
"Is everybody supposed to be impressed..."
5.
G|-------------------------------------------------------22222222---------|
D|------------------------------------------------------------------------|
A|-------------------------------------33333333-33333333----------0-2-3-0-|
E|-11111111-11111111-33333333-33333333------------------------------------|

6.
G|-------------------------------------|
D|-------------------------------------|
A|-------------------------------------|
E|-11111111-11111111-33333333-33333333-|

Outro
7.
G|-------------------------------------------------------------------------|
D|-------------------------------------------------------------------------|
A|-33333333-33333333-22222222-22222222-------------------------------------|--x2
E|-------------------------------------11111111-11111111-33333333-33333333-|

8.
G|-------------------------------------------------------------------|
D|-------------------------------------------------------------------|
A|-33333333-33333333-22222222-22222222-------------------------------|
E|-------------------------------------11111111-11111111-33333333-3x-|

Verse
"Millions old, a mega star..."
9.
G|-------------------------------------------------------------------------|
D|-------------------------------------------------------------------------|
A|-33333333-33333333-22222222-22222222-------------------------------------|
E|-------------------------------------11111111-11111111-33333333-3333--3--|

10.
G|-------------------------------------------------------------------------|
D|-------------------------------------------------------------------------|
A|-33333333-33333333-22222222-22222222-------------------------------------|
E|-------------------------------------11111111-11111111-33333333-33333333-|

Pre-Chorus
"One way ticket to isolation..."
11.
G|-------------------------------------------------------------------------|
D|-xx0-xx0-xx0-xx0---------------------------------------------------------|
A|-------------------------------------33333333-33333333-33333333-33333333-|--x2
E|-------------------11111111-11111111-------------------------------------|

Chorus
"Go ahead keep telling us your fifteen-minute stories..."
12.
G|-------------------------------------------------------22222222---------|
D|------------------------------------------------------------------------|
A|-------------------------------------33333333-33333333----------0-2-3-0-|
E|-11111111-11111111-33333333-33333333------------------------------------|

13.
G|-------------------------------------22222222-22222222-|
D|-------------------------------------------------------|
A|-------------------------------------------------------|
E|-11111111-11111111-33333333-33333333-------------------|

"Go ahead tell us about your last great sold..."
14.
G|-------------------------------------------------------22222222---------|
D|------------------------------------------------------------------------|
A|-------------------------------------33333333-33333333----------0-2-3-0-|
E|-11111111-11111111-33333333-33333333------------------------------------|

15.
G|-------------------------------------|
D|-------------------------------------|
A|-------------------------------------|
E|-11111111-11111111-33333333-33333333-|

Outro
16.
G|-------------------------------------------------------------------------|
D|-------------------------------------------------------------------------|
A|-33333333-33333333-22222222-22222222-------------------------------------|
E|-------------------------------------11111111-11111111-33333333-33333333-|

17.
G|----------|
D|----------|
A|-3~-------|
E|----------|

Lyrics:

No sleep 'til Fuckneckville, it's kind of funny you may not realize it until
phone call stop, can't get laid, you find out where the parties were some time the next day

One way ticket to seclusion, now your losin'
one way ticket to alienation, you're an inside joke

Is everybody supposed to be impressed with your ability to make us feel less significant than you
we're all chippin' in the purchase you a one way first class ticket outta town

Millions sold, a mega star, there's a million assholes with ten million guitars
enjoy it now, soon it ends, suddenly you find yourself without any friends

One way ticket to isolation, you can hang with you
you've been given a citation for excessive social faux pas and obnoxiousness

Go ahead keep telling us your fifteen-minute stories about what you had for breakfast then for lunch
we're all chippin' for one big humble pie, we're gonna smash it in your face
go ahead tell us about your last great sold out concert and how your new record's gonna top the charts
we don't care 'bout your expenses, we just wanna have a laugh at your expense

+++++++++++++++++++++++++++++++++
| RaiLeff                       |
| Underground__Dora@Hotmail.Com |
+++++++++++++++++++++++++++++++++

            
            
Suggest correction
Creating personal tab
Creating personal tab
You can edit any tab online and save it as your Personal.

You can edit, replace or remove any tab part or add personal notes – all changes will be seen only by you.

Personal tabs can be accessed anytime from any device, even offline.
Learn more »
Give kudos to tab author, rate the tab!
1 2 3 4 5
comments
print report bad tab
guest
You may want to rate the tab now too:
select rating
Wanna post a correction for this tab? Suggest correction