Oops, an error
Loading. Please wait.
We have an official Please Play This Song On The Radio tab made by UG professional guitarists. Check out the tab »
×
by NOFX
586 views 3 this week
no commentswrite comment
1 2 3 4 5
3 more votes to show rating
add to favorites
×
Save as Personal and add changes to this tab that will be seen only by you. Learn more ›
×
You can save this tab as Personal to edit and correct it or add notes. All changes will be seen only by you. Learn more »
launch autoscroll
font size
0
reset
guitar tuner
edit
Autoscroll
slow
fast
+/-
esc
set tempo
stop
Author
Band: NOFX
Song: Please Play this Songo n the Radio
Album: White Trash, Two Heebs, and a Bean
Bassist: Fat Mike
Tabber: john_dope

Xtreeeeeeeeeeeeeeeeeeeeeeeeeeeemly cool song

INTRO
G-------------------------------------------|
D-------------------------------------------|
A-----3-----5--2—-33-3----------------------|
E--0-----3-------------3-3------------------|

G-------------------------------------------|
D-------------------------------------------|
A-----------55555555----------33333---------|
E--33333333----------00000000-------3-3-----|
           X2
VERSE
G-------------------------------------------|
D-------------------------------------------|
A-----------55555555----------33333---------|
E--33333333----------00000000-------3-3-----|
          X3
G-------------------------------------------|
D-------------------------------------------|
A-----------55555555--------------2-3-------|
E--33333333----------555555555555-----------|

CHORUS
G-------------------------------------------|
D-------------------------------------------|
A-----------55555555----------33333---------|
E--33333333----------00000000-------3-3-----|

VERSE2
G-------------------------------------------|
D-------------------------------------------|
A-----------55555555----------33333---------|
E--33333333----------00000000-------3-3-----|
         X3
G-------------------------------------------|
D-------------------------------------------|
A--------------------22222222-33333---------|
E--33333333-55555555----------------3-3-----|

GUITAR PART
G-------------------------------------------|
D-------------------------------------------|
A-----------55555555----------33333---------|
E--33333333----------00000000-------3-3-----|
            X2
QUIET PART
G-------------------------------------------|
D-------------------------------------------|
A-----------55555555----------33333---------|
E--33333333----------00000000-------3-3-----|
           X2
After this, there’s the chorus and a pause

INTRO X1
VERSE X1
CHORUS X1
VERSE2 X1
CHORUS X2
GUITAR PART X1
QUIET PART X1
CHORUS X4
VERSE X1
CHORUS X2

            
            
Suggest correction
Creating personal tab
Creating personal tab
You can edit any tab online and save it as your Personal.

You can edit, replace or remove any tab part or add personal notes – all changes will be seen only by you.

Personal tabs can be accessed anytime from any device, even offline.
Learn more »
Give kudos to tab author, rate the tab!
1 2 3 4 5
comments
print report bad tab
guest
You may want to rate the tab now too:
select rating
Wanna post a correction for this tab? Suggest correction