Oops, an error
Loading. Please wait.
We have an official Radio tab made by UG professional guitarists. Check out the tab »
×
by NOFX
4,830 views 1 this week
no commentswrite comment
1 2 3 4 5
1 last vote to show rating
add to favorites
×
Save as Personal and add changes to this tab that will be seen only by you. Learn more ›
×
You can save this tab as Personal to edit and correct it or add notes. All changes will be seen only by you. Learn more »
launch autoscroll
font size
0
reset
guitar tuner
edit
Autoscroll
slow
fast
+/-
esc
set tempo
stop
Author
Difficulty
This is NOFX Cover Of Yet another Rancid Song

El' Hefe Sings

Verse
-------------------------|
-------4-5-4-5-555-4-2---|
-5-555-----------------5-|
-------------------------|

Chorus
------------------------------------------------------------------------|
-------------4-5-4-555-4-2-------4----5555-4-2--------4-5-4-5-555-4-2---|
0~~~~~~-5-55--------------5-5-555--5-7----------5--5-55---------------5-|
------------------------------------------------------------------------|

-----------------------------------------------------|
-----4----5-555-4-2--------5-----5---------55555555--|
-5-55-5-7-----------5--7-7--7-7-7-7------------------|
------------------------------------3-33333----------|

Order
Verse
Chorus
Verse
Chorus
Hefes Singing Part
Verse
Chorus (End On 5th Fret)

Thats it..Pretty Easy Reggae Song

            
            
Suggest correction
Creating personal tab
Creating personal tab
You can edit any tab online and save it as your Personal.

You can edit, replace or remove any tab part or add personal notes – all changes will be seen only by you.

Personal tabs can be accessed anytime from any device, even offline.
Learn more »
Give kudos to tab author, rate the tab!
1 2 3 4 5
comments
print report bad tab
guest
You may want to rate the tab now too:
select rating
Wanna post a correction for this tab? Suggest correction