Oops, an error
Loading. Please wait.
We have an official Ronnie And Mags tab made by UG professional guitarists. Check out the tab »
×
by NOFX
3,004 views 9 this week
1 commentread comment
1 2 3 4 5
x 4
add to favorites
×
Save as Personal and add changes to this tab that will be seen only by you. Learn more ›
×
You can save this tab as Personal to edit and correct it or add notes. All changes will be seen only by you. Learn more »
launch autoscroll
font size
0
reset
how to read this tab
guitar tuner
edit
Autoscroll
slow
fast
+/-
esc
set tempo
stop
Author
INTRO

e-------------------------------------------------------------------------------|
B-------------------------------------------------------------------------------|
G-3-3-3-3-3-5-5-5-------7-7-7-7-7-7-7-7---3-3-3-3-3-5-5-5-----5-7-7-7-7-7-7-7-7-|
D-3-3-3-3-3-5-5-5-5/7-3-7-7-7-7-7-7-7-7---3-3-3-3-3-5-5-5-5/7-5-7-7-7-7-7-7-7-7-|x2
A-1-1-1-1-1-3-3-3-5/7-3-5-5-5-5-5-5-5-5---1-1-1-1-1-3-3-3-5/7-3-5-5-5-5-5-5-5-5-|
E-----------------3/5-1-----------------------------------3/5-------------------|



VERSE
                and then
e------------|-------|        
B------------|-------|          
G-3*--5*--7*-|----7*-|
D-3---5---7--|X4--7--|
A-1---3---5--|----5--|
E------------|-------|
p.m.........

CHORUS

e-------------------------------------------------------------------------------|
B-------------------------------------------------------------------------------|
G-3-3-3-3-3-5-5-5-------7-7-7-7-7-7-7-7---3-3-3-3-3-5-5-5-----5-7-7-7-7-7-7-7-7-|
D-3-3-3-3-3-5-5-5-5/7-3-7-7-7-7-7-7-7-7---3-3-3-3-3-5-5-5-5/7-5-7-7-7-7-7-7-7-7-|x2
A-1-1-1-1-1-3-3-3-5/7-3-5-5-5-5-5-5-5-5---1-1-1-1-1-3-3-3-5/7-3-5-5-5-5-5-5-5-5-|
E-----------------3/5-1-----------------------------------3/5-------------------|


Lyrics:

Gonna send those welfare bombs right back to work
Gonna start a war before 84
Start a dirty war in El Salvador
Gonna start a war before 84
Gonna back the countries and up our tide
Gonna start a war before 84
Then I win the election by a landslide

Chorus:
Ronnie & Mags, Maggy & Ron
Let’s get together build a neutron bomb
Ronnie & Mags, Maggy & Ron
Ronnie & Mags, Maggy & Ron
Lets go to Grenada and the falklands

gonna privatize and shut down some mines
Gonna start a war before 84
Gonna back the contras and apartheid
Gonna start a war before 84
Feed a slice of cake to Bobby Sands
Lets go to Grenada and the falklands
Gonna start a war before 84
Spend the whole day in the fort left
Gonna start a war before 84

Chorus:
Maggy & Ron, Ronnie & Mags, Maggy & Ron
Gonna get the hostages from Iran
Ronnie & Mags, Maggy & Ron, Ronnie & Mags
Let’s go to Grenada and off out lands
Don’t stop

Ronnie & Mags and a sand bag
We know exactly who is wearing the pants
Maggie and Ron, Denis and Mags, Maggie & Ron
Let’s have a ṗose and build a neutron bomb

            
            
Suggest correction
Creating personal tab
Creating personal tab
You can edit any tab online and save it as your Personal.

You can edit, replace or remove any tab part or add personal notes – all changes will be seen only by you.

Personal tabs can be accessed anytime from any device, even offline.
Learn more »
comments
print report bad tab
1 comment total.
0 reply
chunkanator 55 Aug 14, 2014 05:28 AM

Where's the Solo? :c

guest
You may want to rate the tab now too:
select rating
Wanna post a correction for this tab? Suggest correction