Oops, an error
Loading. Please wait.
We have an official Seeing Double At The Triple Rock tab made by UG professional guitarists. Check out the tab »
×
by NOFX
10,536 views 6 this week
no commentswrite comment
1 2 3 4 5
2 more votes to show rating
add to favorites
×
Save as Personal and add changes to this tab that will be seen only by you. Learn more ›
×
You can save this tab as Personal to edit and correct it or add notes. All changes will be seen only by you. Learn more »
launch autoscroll
font size
0
reset
guitar tuner
edit
Autoscroll
slow
fast
+/-
esc
set tempo
stop
NOFX - Seing Double At The Triple Rock
     - "Wolves in Wolves' clothing"
Tabbed by- Aaron

Intro  (starts with just guitar 2x)
G|---------------------------------|
D|---------------------------------|
A|---------------------------------|
E|0-0-------0-0-------0-0---0--0-0-|

Main riff                                   1st-3rd   2nd     4th
G|-----------------------------------------|-------|-------|---------|
D|----5-------5-----5---7p5------5-------5-|-------|-------|---------|
A|-77---7-5h7----66---7-------55---7-5h7---|-55----|-55-66-|-555-----|
E|-----------------------------------------|----55-|-------|-----5-3-|

Verse
G|------------------------------------------------------------------------|
D|------------------------------------------------------------------------|
A|-------------------55555555----------------------------55555555-7-7x7---|
E|-00000000-33333333----------555553-0-00000000-33333333------------------|

G|-------------------------------------------------------------------------|
D|-------------------------------------------------------------------------|
A|-------------------55555555----------------------------55555555-77777777-|
E|-00000000-33333333----------555553-0-00000000-33333333-------------------|

Chorus
G|-------------------------------------------------------------------------|
D|-------------------------------------------------------------------------|
A|-33333333-55555555-66666666-77777777-00000000-00000000-00000000-00000000-|
E|-------------------------------------------------------------------------|

Main Riff (2x only)
Verse
Chorus

Bridge
G|-------------------------------------|-------------|-------------------|
D|-------------------------------------|-------------|-------------------|
A|-33333333----------66666666-77777777-|-0~-3~-------|-00000000-33333333-|
E|----------33333333-------------------|-------3~-0~-|-------------------|

Main Riff (2x only)

End on
G|----|
D|----|
A|----|
E|-0~-|

You can figure out the timing, it's relatively easy, and a fun song. I mostly went off 
the guitar tabs, but I think it is pretty close. But, if you have any corrections or 
let me know.

aaronsmells26@yahoo.com

            
            
Suggest correction
Creating personal tab
Creating personal tab
You can edit any tab online and save it as your Personal.

You can edit, replace or remove any tab part or add personal notes – all changes will be seen only by you.

Personal tabs can be accessed anytime from any device, even offline.
Learn more »
Give kudos to tab author, rate the tab!
1 2 3 4 5
comments
print report bad tab
guest
Wanna post a correction for this tab? Suggest correction