Oops, an error
Loading. Please wait.
We have an official Seeing Double At The Triple Rock tab made by UG professional guitarists. Check out the tab »
×

Seeing Double At The Triple Rock intro tab

by NOFX
8,665 views 1 this week
no commentswrite comment
1 2 3 4 5
x 5
add to favorites
×
Save as Personal and add changes to this tab that will be seen only by you. Learn more ›
×
You can save this tab as Personal to edit and correct it or add notes. All changes will be seen only by you. Learn more »
launch autoscroll
font size
0
reset
how to read this tab
guitar tuner
edit
Autoscroll
slow
fast
+/-
esc
set tempo
stop
Difficulty
intermediate
         This is my first tab and im only doing the intro because the rest of the tabs
this song (although they may be right) i couldn't do so i found a easier way to play it
those who are better with their fret hand and bad at fast picking. for the rest of the 
i recomend any of the other tabs that were up. They seemed to be correct.


--------------------------------------------------------------------------|
--------------------------------------------------------------------------|
----------------------------------------------------------------7-7-------|
----------------------------------------------------------------7-7-7-7---|  X3
--7--7h10p7------7h10------7--7h10p7--12p10------7--7h10p7------5-5-7-7---|
-------------10---------------------------------------------10------5-5---|


----------------------------------------------------------------------------|
----------------------------------------------------------------------------|
----------------------------------------------------------------7-7-7-------|
----------------------------------------------------------------7-7-7-7-5-2-|
--7--7h10p7------7h10------7--7h10p7--12p10------7--7h10p7------5-5-5-7-5-2-|
-------------10---------------------------------------------10--------5-3-0-|


also for this intro, if that 12p10 is to much then try it this way:

---------------------------------------------------------------------------|
---------------------------------------------------------------------------|
-----------------------------------------------------------------7-7-------|
--------------------------------------7--------------------------7-7-7-7---|  X3
--7--7h10p7------7h10------7--7h10p7-----h10------7--7h10p7------5-5-7-7---|
-------------10----------------------------------------------10------5-5---|


----------------------------------------------------------------------------|
----------------------------------------------------------------------------|
----------------------------------------------------------------7-7-7-------|
--------------------------------------7-------------------------7-7-7-7-5-2-|
--7--7h10p7------7h10------7--7h10p7----h10------7--7h10p7------5-5-5-7-5-2-|
-------------10---------------------------------------------10--------5-3-0-|

            
            
Suggest correction
Creating personal tab
Creating personal tab
You can edit any tab online and save it as your Personal.

You can edit, replace or remove any tab part or add personal notes – all changes will be seen only by you.

Personal tabs can be accessed anytime from any device, even offline.
Learn more »
comments
print report bad tab
guest
Wanna post a correction for this tab? Suggest correction