Oops, an error
Loading. Please wait.

Shes Gone tab

version 1
version 1

Whole song

Interactive

by NOFX
277 views 3 this week
2 commentsread comments
1 2 3 4 5
3 more votes to show rating
add to favorites
×
Save as Personal and add changes to this tab that will be seen only by you. Learn more ›
×
You can save this tab as Personal to edit and correct it or add notes. All changes will be seen only by you. Learn more »
launch autoscroll
font size
0
reset
how to read this tab
guitar tuner
edit
Autoscroll
slow
fast
+/-
esc
set tempo
stop
Author
Difficulty
SHE'S GONE by NOFX. Album : White trash, two heebs and a bean (1992)      1/2
Great lyrics and great feeling.
A=Melvin   B=El Hefe   A&B=both   C=solo guitar
:
# verse #B !GuitarA is quiet!
E-------------------------------------------|
B---3---1---------1-3---1---------1-3---1---|
G---3---0---2---2-0-3---0---2---2-0-3---0---|
D---3---2---3---3-2-3---2---3---3-2-3---2---|
A-------3---5---5-3-----3---5---5-3-----3---|
E-------------------------------------------|
:   A#  C   Dm    C A#  C   Dm    C A#  C
# verse2 #A *=play 6X #=play 3X (...burned down to the stick...)
E------------------------------------------------------|
B--------------------*-------*-------*-------#---#-----|
G----*-------#-10-9-7-------7-------5-------3---5---7-\|
D---3-------3--10-9-7-------7-------5-------3---5---7-\|
A---3-------3---8-7-5-------5-------3-------1---3---5-\|
E---1-------1------------------------------------------|
# verse2 #B *=play 6X #=play 3X (...burned down to the stick...)
E------------------------------------------------------|
B----*-------#-------*-------*-------*-------#---#-----|
G--10------10--10-9-7-------7-------5-------3---5---7-\|
D--10------10--10-9-7-------7-------5-------3---5---7-\|
A---8-------8---8-7-5-------5-------3-------1---3---5-\|
E------------------------------------------------------|
:
# verse3 #A X2 *=play 6X #=play 3X (!second time without last note!)
E--------------------------------------------------------------|
B----*-------*-------*-----------------------------------------|
G--10-------5-------6--------*-------*-------*-------#-10-9-7-\|
D-----------5---------------8-------5-------7-------7--10-9-7-\|
A---8-------3-------4-------8-------5-------7-------7---8-7-5-\|
E---------------------------6-------3-------5-------5----------|
# verse3 #B X2 *=play 6X #=play 3X (!second time without last note!)
E--------------------------------------------------------------|
B----*-------*-------------------------------------------------|
G---7-------5--------*-------*-------*-------*-------#-10-9-7-\|
D-----------5-------7-------8-------5-------7-------7--10-9-7-\|
A---5-------3-------7-------8-------5-------7-------7---8-7-5-\|
E-------------------5-------6-------3-------5-------5----------|
:
Then play A&BverseB and Averse2A or Bverse2B (!both without last note!).
:
# chorus #A&B X2 *=play 6-8X
E-----------------------------------|
B----*------------------------------|
G---7--------*------*-------3-33--5-| > Then play A&BverseB and Averse2AX0.25 
D---7-------3------5--------3-33--5-|   or Bverse2BX0.25 (!four 1st chords!).
A---5-------3------5--------1-11--3-|
E-----------1------3----------------|
:
# bridge2 #A&B *=play 6X   
E----------------------------------------------------------------------|
B----*---------------*-----------*---*---------------*-----------------|
G---7----*---*---*--7----*---*--5---7----*---*---*--7----*---*---*--7-\|
D---7---8---3---7---7---8---3---5---7---8---3---7---7---8---7---7---7-\|
A---5---8---3---7---5---8---3---3---5---8---3---7---5---8---7---7---5-\|
E-------6---1---5-------6---1-----------6---1---5-------6---5---5------|
:
>>>>>>>>>>to next page... 
SHE'S GONE                                                                2/2
:
# solo-bg #A *=play 6X #=play 3X
E-------------------------------------------------------------------|
B----*-------*-------*---------------------------------------*------|  
G--10-------5-------6--------*-------*-------*-------*------7-------|
D-----------5---------------8-------5-------7-------7-------7-------|
A---8-------3-------4-------8-------5-------7-------7-------5-------|
E---------------------------6-------3-------5-------5---------------|
# solo-bg #B *=play 6X #=play 3X 
E-------------------------------------------------------------------|
B----*-------*-----------------------------------------------*------|
G---7-------5--------*-------*-------*-------*-------*------7-------|
D-----------5-------7-------8-------5-------7-------7-------7-------|
A---5-------3-------7-------8-------5-------7-------7-------5-------|
E-------------------5-------6-------3-------5-------5---------------|
# solo #C b=bend up one step p=pull-off v=vibrato h=hammer-on r=release bend
E--------------------------------------------------------|
B---------------------------1013-------------------------|
G-2/7-91012v------9-1012--b-------1210--1010-------------|
D-------------------------------------12----121012v------|
A--------------------------------------------------------|
E--------------------------------------------------------|
>soloB
>--------------------------------------h-----p-----p---------------------|
>--1011-810---8---6---6-81011-810-8--1012121513--1513--13b--r-1013bv-----|
>----------10---9---7--------------10----------14----14------------------|
>------------------------------------------------------------------------|
>------------------------------------------------------------------------|
>------------------------------------------\---FAST---/------------------|
:
# verse4 #A *=play 6-8X  
E---------------------------------------------------------------------|
B----*-----*-----*-----------------------------*-----*-----*-----*----|
G--10-----5-----6------*-----*-----*-----*----5-----5-----3-----5-----|
D---------5-----------8-----5-----7-----7-----5-----5-----3-----5-----|
A---8-----3-----4-----8-----5-----7-----7-----3-----3-----1-----3-----|
E---------------------6-----3-----5-----5-----------------------------|
# verse4 #B *=play 6-8X 
E---------------------------------------------------------------------|
B----*-----*-----------------------------------*-----*-----*-----*----|
G---7-----5------*-----*-----*-----*-----*----5-----5-----3-----5-----|
D---------5-----7-----8-----5-----7-----7-----5-----5-----3-----5-----|
A---5-----3-----7-----8-----5-----7-----7-----3-----3-----1-----3-----|
E---------------5-----6-----3-----5-----5-----------------------------|
:
Then play A&BchorusA&BX5.5 and then it's done!   (revised 25.07.2004.)
Tabbed by Jussi Heinonen 31.05.1998.          Thanks to Juha Kellokoski

            
            
Suggest correction
Creating personal tab
Creating personal tab
You can edit any tab online and save it as your Personal.

You can edit, replace or remove any tab part or add personal notes – all changes will be seen only by you.

Personal tabs can be accessed anytime from any device, even offline.
Learn more »
Give kudos to tab author, rate the tab!
1 2 3 4 5
comments
print report bad tab
2 comments total.
0 reply
negativefx 60 Jul 18, 2015 12:02 PM

Hey at least you gave Jiihoo credit for this one. I'm pretty sure he doesn't allow you to repost his tabs on other sites.

jiihootabs.com is where you'll find every NOFX tab (also Lagwagon and many others), all tabbed by Jiihoo. They're by far the most accurate and complete tabs for all NOFX.

0 reply
KrepzWaffle 82 Jul 20, 2015 03:35 PM, edited at 07:36 pm

I'm just helping the community. A lot of people only know this page so i'm posting it here because this tab wasn't posted in this site. And i'm not taking the credit of this, i only want to share it to more people. Thanks.

guest
You may want to rate the tab now too:
select rating
Wanna post a correction for this tab? Suggest correction