Oops, an error
Loading. Please wait.

Suits And Ladders bass

version 2
version 2

Whole song

by NOFX
1,264 views 1 this week
1 commentread comment
1 2 3 4 5
3 more votes to show rating
add to favorites
×
Save as Personal and add changes to this tab that will be seen only by you. Learn more ›
×
You can save this tab as Personal to edit and correct it or add notes. All changes will be seen only by you. Learn more »
launch autoscroll
font size
0
reset
guitar tuner
edit
Autoscroll
slow
fast
+/-
esc
set tempo
stop
Author
+++++++++++++++++++++++++++
| NOFX- Suits And Ladders |
+++++++++++++++++++++++++++


"You woke up today covered in droppings..."


Tuning: Standard EADG


Intro
1.
G|---7--5-0---7--5-0---7--5-0---7--5-0---7--5-0---7--5-0---7--5-5h777p5-0h5h7p5-|
D|-00-00-0--00-00-0--00-00-0--00-00-0--00-00-0--00-00-0--00-00-0--0-0---0-0-0-0-|
A|------------------------------------------------------------------------------|
E|------------------------------------------------------------------------------|
   ^----------------------------------PM-----------------------^

Verse
"I got manicured fingers and toes..."
2.
G|---------------------------------------------------------7--5-5---7--5~--|
D|-00000000-00000000-33333333-33333333-------------------00-00-0--00-00-00-|
A|-------------------------------------33333333-33333333-------------------|--x2
E|-------------------------------------------------------------------------|

"Your life's gotta really suck..."
3. 
G|---------------------------------------------------------7--5-5-----------|
D|-00000000-00000000-33333333-33333333-------------------00-00-0--0000------|
A|-------------------------------------33333333-33333333--------------------|
E|---------------------------------------------------------------------1-3~-|

"You're the one who lives nowhere..."
4.
G|-------------------------------------------------------|
D|-00000000-00000000-33333333-33333333-------------------|
A|-------------------------------------33333333-33333333-|
E|-------------------------------------------------------|

Chorus
"You're just not fluous..."
5.
G|-------------------------------------------------------------------------------------------|
D|-55555555-55555555-------------------33333333-33333333-------------------------------------|
A|-------------------11111111-11111111-------------------33333333-33333333-44444444-44444444-|
E|-------------------------------------------------------------------------------------------|

Outro
6.
G|---7--5-0---7--5-0---7--5-5h777p5-0h5h7p5-|
D|-00-00-0--00-00-0--00-00-0--0-0---0-0-0-0-|
A|------------------------------------------|
E|------------------------------------------|
   ^-----------PM----------^

Verse
"40 year old Macallans..."
7.
G|---------------------------------------------------------7--5-5---7--5~--|
D|-00000000-00000000-33333333-33333333-------------------00-00-0--00-00-00-|
A|-------------------------------------33333333-33333333-------------------|--x2
E|-------------------------------------------------------------------------|

"Your house is of corrections..."
8. 
G|---------------------------------------------------------7--5-5-----------|
D|-00000000-00000000-33333333-33333333-------------------00-00-0--0000------|
A|-------------------------------------33333333-33333333--------------------|
E|---------------------------------------------------------------------1-3~-|

"You're the one who has nothing..."
9.
G|-------------------------------------------------------|
D|-00000000-00000000-33333333-33333333-------------------|
A|-------------------------------------33333333-33333333-|
E|-------------------------------------------------------|

Chorus
"You woke up today..."
10.
G|-------------------------------------------------------------------------------------------|
D|-55555555-55555555-------------------33333333-33333333-------------------------------------|
A|-------------------11111111-11111111-------------------33333333-33333333-44444444-44444444-|
E|-------------------------------------------------------------------------------------------|

Bridge
11.
G|-------------------------------------------------------------------------|
D|-00000000-00000000-00000000-00000000-00000000-00000000-00000000-00000000-|
A|-------------------------------------------------------------------------|--x2
E|-------------------------------------------------------------------------| 

12.
G|-------------------------------------|
D|-00000000-00000000-00000000-00000000-|
A|-------------------------------------|
E|-------------------------------------|

Verse
"You are a superfluous man..."
13.
G|---------------------------------------------------------7--5-5---7--5~--|
D|-00000000-00000000-33333333-33333333-------------------00-00-0--00-00-00-|
A|-------------------------------------33333333-33333333-------------------|--x4
E|-------------------------------------------------------------------------|

Outro
14.
G|-------------------------|
D|-0000-------0000x--------|
A|-------------------------|
E|------1-3~---------------|


Please rate thank you!


Lyrics:

I got manicured fingers and toes
I got 4 layers of pee-soaked clothes but I'm still condescending
Your as and teeth permanent browned
Your face is permanently frowned and I have everything I want
Your life's gotta really suck
You gotta hustle all day just to make the bucks
To get high enough just to forget about what you've become
You're the one who lives nowhere
You think you're life's more than a game of suits and ladders
When nothing really matters
You're not just fluous, you're superfluous
You don't actually do anything, a human redundancy

40 year old Macallans, 40 Old English ounces
Henry the IV double shot
I just finished a bottle of Old Crow
I just bought a case of Chateau Margaux, not the 95, the 96
Your house is of corrections
Your house is full of collections of crap you bought from selling others out
You're the one who has nothing
Your life is a game of unstable bladders, when nothing really matters
You woke up today covered in droppings 
When the bottom drops, my life won't change a bit but yours will turn to shit

You are a superfluous man, I am a superfluous man
You're quite a superfluous man, I am a superfluous man 



+++++++++++++++++++++++++++++++++
| RaiLeff                       |
| Underground__Dora@Hotmail.Com |
+++++++++++++++++++++++++++++++++

            
            
Suggest correction
Creating personal tab
Creating personal tab
You can edit any tab online and save it as your Personal.

You can edit, replace or remove any tab part or add personal notes – all changes will be seen only by you.

Personal tabs can be accessed anytime from any device, even offline.
Learn more »
Give kudos to tab author, rate the tab!
1 2 3 4 5
comments
print report bad tab
1 comment total.
0 reply
dominiquep12 133 Nov 27, 2014 04:48 AM

wow, this is ****ing hard to play right...

guest
You may want to rate the tab now too:
select rating
Wanna post a correction for this tab? Suggest correction