Oops, an error
Loading. Please wait.

Total Bummer bass

version 1
version 1

Whole song

Interactive

by NOFX
2,003 views 3 this week
1 commentread comment
1 2 3 4 5
1 last vote to show rating
add to favorites
×
Save as Personal and add changes to this tab that will be seen only by you. Learn more ›
×
You can save this tab as Personal to edit and correct it or add notes. All changes will be seen only by you. Learn more »
launch autoscroll
font size
0
reset
guitar tuner
edit
Autoscroll
slow
fast
+/-
esc
set tempo
stop
Band : NoFx
Song : Total Bummer
Album: Pump Up The Valuum


A great song, takes the agression out! :D
Intro: 
riff 1: Bass solo
G\-----------------------------|
D\-----------------------------|
A\-0-0--0-3-3--3-5-5--5-7-7--7-|
E\-----------------------------|

with guitars and drums 
Riff 2: 
G\--------------------------------------------------------|
D\--------------------------------------------------------|
A\-0-0--0-3-3--3-5-5--5-7-7--7-3-3--3-5-5--5-7-7--7-3-3--3|
E\--------------------------------------------------------|

riff 3: 
"go away, sunny day..."
G\------------------------------------------------------------------|
D\------------------------------------------------------------------|
A\-0-0--0-0-0--0/12-12--12-12-12--12-3-3--3-10-10--10-8-8--8-7-7--7-|
E\------------------------------------------------------------------|

riff 4:
G\-----------------------------|
D\-----------------------------|
A\-5-5--5-5-5--5-5-5--5/8-8--8-|
E\-----------------------------|

riff 5:
G\------------------------------------------------------------|
D\------------------------------------------------------------|
A\------------------------------------------------------------|
E\-1-1--1-1-1--1-1-1--1-1-1--1-3-3--3/10-10--10-8-8--8-7-7--7-|

riff 6:
G\---------------------------------|
D\---------5--------2-3-----2------|
A\---0-------3----------------3----|
E\---------------------------------|

riff 7:
D\---------5---------------------------|
G\-----------5----3-2-3-----2----------|
A\---0------------------------3----2---|
E\-------------------------------------|


song progression:
Riff 1 (x2)  Bass solo
Riff 2 (x2)  with guitar and drums 
Riff 3 (x2)
Riff 4 (x2)
Riff 5
Riff 4 (x2)
Riff 5
Riff 3 (x2)
Riff 4 (x2)
Riff 5
Riff 4 (x2)
Riff 5 
Riff 6
Riff 7
Riff 3 (x2)  (during the guitar solo)
Riff 4 (x2)
Riff 5
Riff 4 (x2)
Riff 5

Riff 5 at the end of the song is played like this:
riff 5:
G\------------------------------------------------------------------------|
D\------------------------------------------------------------------------|
A\------------------------------------------------------------0------1/12-|
E\-1-1--1-1-1--1-1-1--1-1-1--1-3-3--3/10-10--10-8-8--8-7-7--7-------------|
actually the difference between riff 5 at the end of the song and riff 5 before
the end of the song is the open string "A" and the strange thing Fat Mike does
when the sound fades out:) nice!:D Enjoy! contact me at paperdoll@abv.bg

            
            
Suggest correction
Creating personal tab
Creating personal tab
You can edit any tab online and save it as your Personal.

You can edit, replace or remove any tab part or add personal notes – all changes will be seen only by you.

Personal tabs can be accessed anytime from any device, even offline.
Learn more »
Give kudos to tab author, rate the tab!
1 2 3 4 5
comments
print report bad tab
1 comment total.
+1 reply
LoDennis 135 Oct 11, 2008 01:44 AM

Yo! This is the best tab of this song I've ever seen! Good job, dude! ;D But after playing this, I guess the fifth riff is a little wrong.
I play it this way:
G\------------------------------------------------------------|
D\------------------------------------------------------------|
A\-----------------------------3-3--3-3-3--3/10-10--10-8--8-8-|
E\-1-1--1-1-1--1-1-1--1-1-1--1--------------------------------|

Well... corrections are easy to do, if you have a basis to build on^^'
I'm not that good in tabbing something out, so I thank you most sincerely. I became really desperate with this song :P

guest
Wanna post a correction for this tab? Suggest correction