Oops, an error
Loading. Please wait.

Usa-Holes bass

version 1
version 1

Whole song

Interactive

by NOFX
3,694 views 1 this week
1 commentread comment
1 2 3 4 5
x 5
add to favorites
×
Save as Personal and add changes to this tab that will be seen only by you. Learn more ›
×
You can save this tab as Personal to edit and correct it or add notes. All changes will be seen only by you. Learn more »
launch autoscroll
font size
0
reset
guitar tuner
edit
Autoscroll
slow
fast
+/-
esc
set tempo
stop
Author
Difficulty
email- chosenfro68@yahoo.com
tabber- Jamie McDonald

this is a Really Cool Song that I have had alot of trouble getting the bass to match with the guitar
but now I'v finally got it!

Intro
-----------------------------------------------------|
-----------------------------------------------------|
-----777-7-77-----777-7-77-----777-7-77-----777-7-77-|
-3-0----------3-0----------3-0----------3-0----------|

-----------------------------------------|
-----------------------------------------|
-----777-7-77-----777-7-77-----777-7-77--|
-3-0----------3-0----------3-0-----------|

Intro Continued
------------------------------------------------0-2-0---0-2-0-|
----------------------------------------------2-------2-------|
-----5-7-2-3-2-----3-2-0--------5-7-2-3-2---------------------|
-3-5-----------5-3-------30-3-5-----------5-3-----------------|

--------------------------------------------------|
--------------------------------------------------|
5-7-2-3-2-----3-2-0--------5-7-2-3-2-----7--------|
----------5-3-------30-3-5-----------5-3----------|

  *=Tremelo pick
---------------------------------------------------------------|
---------------------------------------------------------------|
-7***-----3--7***----2-3-33333333------------------------------|
------3-5(8)------3-5-------------5-55555555-333333330/3333333-|

-------------------------------------------------|
-------------------------2-2222222222222222222---|
-3-3333333333------------------------------------|
--------------5-55555555-------------------------|

-------------------------------------------------------|
-------------------------------------------------------|
----------------3-333333333333-0-000000000-3-33333333--|
--3-33333333333----------------------------------------|

 --------------------------------------------------------------------|
------------7-5-4----------------------------------------------------|
-----5-7***-------7***----2-3-33333333-------------------------------|
-3-5-------------------3-5-------------5-55555555-333333330/3333333--|

------------------------------------------------------|
-------------------------2-xx-22-xx-22-xx-22-xx-22----|
-3-3333333333-----------------------------------------|
--------------5-55555555------------------------------|

-------------------------------------------------------|
-------------------------------------------------------|
----------------3-333333333333-0-000000000-3-33333333--|
--3-33333333333----------------------------------------|

        [Play Twice]
[-------------------------------------------------]
[-------------------------------------------------]
[---3-5-77/5/7--------------0-23-55-9-7-----------]
[-5------------3-5-7-88/7/8-------------5-7-8-7-8-]

------------------------------------------------------|
-7-5--------------------------------------------------|
-----7-77777777---------------------------------------|
----------------8-888888888-3-3333333333-0-33333333---|

-------------------------------------------------|
-------------------------------------------------|
7-7777777777-------------------------------------|
-------------8-888888888-3-3333333333-0-33333333-|

-------------------------------------------------|
-------------------------------------------------|
7-7777777777-------------------------------------|
-------------8-888888888-3-3333333333-0-33333333-|

-------------------------------------------------|
-------------------------------------------------|
7-7777777777-------------------------------------|
-------------8-888888888-3-3333333333-0-33333333-|


--------------------------------------------------------------------|
--------------------------------------------------------------------|
-----5-7-(2)(3)(2)------(3)(2)(0)-----------5-7-2-3-2-0-------------|
-3-5--------------(5)(3)---------(3)(0)-3-5------------3-0~~~~~~~~~-|

Thats All of it, Was pretty tuff to get the whole beggining part but i got it..

            
            
Suggest correction
Creating personal tab
Creating personal tab
You can edit any tab online and save it as your Personal.

You can edit, replace or remove any tab part or add personal notes – all changes will be seen only by you.

Personal tabs can be accessed anytime from any device, even offline.
Learn more »
comments
print report bad tab
1 comment total.
0 reply
jimbo_226 261 Oct 30, 2007 03:55 PM

the whole tab is good exept this part, the intro sounds better and its easier like this...

g----------------------------|----------------------------|
d----------------------------|---------------------5-7p5--|
a----5-77-0h2-3---2-3-2-0----|----5-7-0h2-3-------5-----7-|
e-3-5----------3-5-------3-0-|-3-5---------3-5p3-0--------|

g----------------------------|----------------------------|
d----------------------------|----------------------------|
a----5-77-0h2-3---2-3-2-0----|----5-77-0h2-3------7-------|
e-3-5----------3-5-------3-0-|-3-5----------3-5p3---------|

guest
You may want to rate the tab now too:
select rating
Wanna post a correction for this tab? Suggest correction