Oops, an error
Loading. Please wait.
We have an official We Called It America tab made by UG professional guitarists. Check out the tab »
×
by NOFX
4,043 views 9 this week
no commentswrite comment
1 2 3 4 5
x 3
add to favorites
×
Save as Personal and add changes to this tab that will be seen only by you. Learn more ›
×
You can save this tab as Personal to edit and correct it or add notes. All changes will be seen only by you. Learn more »
launch autoscroll
font size
0
reset
guitar tuner
edit
Autoscroll
slow
fast
+/-
esc
set tempo
stop
Author
++++++++++++++++++++++++++++++
| NOFX- We Called It America |
++++++++++++++++++++++++++++++


"Remember when America had a middle class and an upper class? that was way before the exodus"

Tuning: Standard EADG


Intro
1.
G|--------------------------------------------------------|
D|--------------------------------------------------------|
A|-----------------------------------------------------8\-|
E|--------------------------------------------------------|

2.
G|-------------------------------------------------------------------------|
D|-------------------------------------------------------------------------|
A|-00000000-00000000-33333333-33333333-------------------55555555-55555555-|
E|-------------------------------------33333333-33333333-------------------|

3.
G|-------------------------------------------------------------------------|
D|-77777777-77777777-------------------55555555-55555555-------------------|
A|-------------------33333333-33333333-------------------55555555-55555555-|
E|-------------------------------------------------------------------------|

Verse
"Remember when America..."
4.
G|-------------------------------------------------------------------------|
D|-------------------------------------------------------------------------|
A|-00000000-33333333----------55555555-00000000-33332222-----5555-00000000-|--x2
E|-------------------33333333----------------------------3333--------------|

Chorus
"We called it America..."
5.
G|-------------------------------------------------------------------------|
D|-------------------------------------------------------------------------|
A|-00000000-33333333-------------------00000000-33333333-55555555-55555555-|
E|-------------------33333333-22222222-------------------------------------|

Verse
"Number one America..."
6.
G|-------------------------------------------------------------------------|
D|-------------------------------------------------------------------------|
A|-00000000-33333333----------55555555-00000000-33332222-----5555-00000000-|--x2
E|-------------------33333333----------------------------3333--------------|

Chorus
"We called it America..."
7.
G|-------------------------------------------------------------------------|
D|-------------------------------------------------------------------------|
A|-00000000-33333333-------------------00000000-33333333-55555555-55555555-|
E|-------------------33333333-22222222-------------------------------------|

Outro
8.
G|-------------------------------------------------------------------------|
D|-------------------------------------------------------------------------|
A|-00000000-00000000-33333333-33333333-------------------------------------|
E|-------------------------------------33333333-33333333-11111111-11111111-|

9.
G|-------------------------------------------------------------------------|
D|-------------------------------------33333333-33333333-55555555-55555555-|
A|-33333333-33333333-22222222-22222222-------------------------------------|
E|-------------------------------------------------------------------------|

Bridge
"National bankruptcy..."
10.
G|-------------------------------------------------------------|
D|-------------------------------------------------------------|
A|-00-0000-00-000----------------------------------------------|--x2
E|----------------33-3333-33-333-11-1111-11-111-00-0000-00-000-|

Chorus
"We called it America..."
11.
G|-------------------------------------------------------------------------|
D|-------------------------------------------------------------------------|
A|-00000000-33333333-------------------00000000-33333333-55555555-55555555-|--x2
E|-------------------33333333-22222222-------------------------------------|

Outro
"We called it America..."
12.
G|------------|
D|------------|
A|-0~---------|
E|------------|


Please rate and thank you!


Lyrics:

"The leads are weak."
"The leads are weak; fucking leads are weak? You're weak."

Remember when America had a middle class and an upper class? 
That was way before the exodus.
That was the America that we thought was number one, 
thought would overcome, thought would never die.
That was just our pride and faith: two shitty deadly sins; 
I know faith isn't one of 'em but it should have been,
'Cause when things were crumbling, we had no camaraderie, 
just a faith someone would save us from despondence.

We called it America, whoa.

"Number one America" was a slogan used 
to keep morale up when we knew we were already cooked,
Then the richer western states 
succeeded in secession and the eastern ones followed right behind.
Mexi-Can-America was the perfect name 
that epitomized the order of significance, authority and affluence.
We had turned it all around, went from number one, straight to number two.

National bankruptcy, circumcised society.
USA, dined and ditched; 
Fox reports "poor is the new rich".



+++++++++++++++++++++++++++++++++
| RaiLeff                       |
| Underground__Dora@Hotmail.Com |
+++++++++++++++++++++++++++++++++
Suggest correction
Creating personal tab
Creating personal tab
You can edit any tab online and save it as your Personal.

You can edit, replace or remove any tab part or add personal notes – all changes will be seen only by you.

Personal tabs can be accessed anytime from any device, even offline.
Learn more »
Give kudos to tab author, rate the tab!
1 2 3 4 5
comments
print report bad tab
guest
You may want to rate the tab now too:
select rating
Wanna post a correction for this tab? Suggest correction