Oops, an error
Loading. Please wait.

We March To The Beat Of Indifferent Drum bass

version 1
version 1

Whole song

Interactive

by NOFX
2,222 views 6 this week
2 commentsread comments
1 2 3 4 5
x 4
add to favorites
×
Save as Personal and add changes to this tab that will be seen only by you. Learn more ›
×
You can save this tab as Personal to edit and correct it or add notes. All changes will be seen only by you. Learn more »
launch autoscroll
font size
0
reset
guitar tuner
edit
Autoscroll
slow
fast
+/-
esc
set tempo
stop
alrite...this is my first tab ever...so...rate it...thanx...

-dylan

normal tuning

intro (bass comes in at 0:05)

----------------------------------------|
----------------------------------------|
----------------------------------------|
------12--10-1010---12--10--------------|

verse

--------------------------------------------------------------------|
---------------------5323--17-15-1415\12----14121112-14-12-11-11/14-|
----10878-5-3-02-3--------------------------------------------------|
--8----------------3---------------------12-------------------------|


-------------------------------------------------------|
----1210910--------------------------3101--17151415\12-|
------------7-5-3/8---8656-3-1-01-3--------------------|
-10-----------------6--------------3-------------------|


-------------------------------------------------|
----14121112-14-12-11-11/14-----1210910----------|
----------------------------------------7-5-3/8--|
-12--------------------------10------------------|


chorus

---------------------------------------------|
---------------------------------------------|
--3(x a few)---------2(x a few)-3(x a few)-5-|
-----------3(x a few)------------------------|

     play this x3                    play this x2
-->---------------------<->------------------------------------------<-|
-->---------------------<->------------------------------------------<-|
-->-77-7-777 5(x a few)-<->-3(x a few)----------2(x a few)-7(x a few)<-|
-->---------------------<->-----------3(x a few)---------------------<-|

                                               play this x3
-------------------------------------------->--------------------<-|
-------------------------------------------->--------------------<-|
-3(x a few)----------2(x a few)3(x a few)-5->-77-7-777-5(x a few)<-|
-----------3(x a few)----------------------->--------------------<-|


outro

                                                 play this x3
--------------------------------------------->--------------------<-|
--------------------------------------------->--------------------<-|
-3(x a few)----------2(x a few)-3(x a few)-5->-77-7-777-5(x a few)<-|
-----------3(x a few)------------------------>--------------------<-|


---------------|
---------------|
-3(x a few)----|
-----------3---|


well...there u go...have fun...if u have any revisions please send them to me at  punx.eff.it@hotamil.com

thanx again...later

dylan

            
            
Suggest correction
Creating personal tab
Creating personal tab
You can edit any tab online and save it as your Personal.

You can edit, replace or remove any tab part or add personal notes – all changes will be seen only by you.

Personal tabs can be accessed anytime from any device, even offline.
Learn more »
comments
print report bad tab
2 comments total.
0 reply
LoDennis 135 May 11, 2007 02:02 PM

The intro- and the verse-tabs are good. (I think)
But the these "(x a few)" things are a bit confusing, nevertheless I think it's good at all.

0 reply
stiix 10 Oct 04, 2007 07:21 AM

The intro's very wrong and I havent been able to get the rest of it to work at all.. I'm gunna work with this till I get it.. so if for some reason I get it to work differently I'll come back n change my rating.. but the intro is really very wrong so I dont see that happening.. I like the ver 1 intro. he got those 5 notes right in that one.

guest
Wanna post a correction for this tab? Suggest correction