Oops, an error
Loading. Please wait.

We March To The Beat Of Indifferent Drum bass

version 2
version 2

Whole song

Interactive

by NOFX
3,100 views 9 this week
3 commentsread comments
1 2 3 4 5
1 last vote to show rating
add to favorites
×
Save as Personal and add changes to this tab that will be seen only by you. Learn more ›
×
You can save this tab as Personal to edit and correct it or add notes. All changes will be seen only by you. Learn more »
launch autoscroll
font size
0
reset
guitar tuner
edit
Autoscroll
slow
fast
+/-
esc
set tempo
stop
Author
Difficulty
We March To The Beat Of Indifferent Drum (Bass Tab)

  INTRO
G-----------------------|
D-----------------------|
A-----------------------|
E-12----7-5-7-12-10-----|

  VERSE (x2)
G-------------------|-------14-12-11-12P11---|----7H9-11-9-7/9-11-|-9-9-7---------7-|
D-------------------|---------------------12-|-9-9----------------|------9-7-5-5-7--|
A-3-3-3-5-3-2-3-2-0-|----3-5-----------------|--------------------|-----------5-----|
E-------------------|-3-3--------------------|--------------------|-----------------|

  CHORUS
G--------------------------------------------------|
D-22222222--------22222222--------22222222---------| (X1)
A-------------------------22222222--------55555555-|
E---------33333333---------------------------------|

G----------------------------------|
D-------------------------22222222-| (x2)
A-33333333--------22222222---------|
E---------33333333-----------------|

G---------------------------------------------|
D---------------------------------------------| (x1)
A-33333333333333333----------------2222222222-|
E------------------3333333333333333-----------|

G-----------------------------------------------------|
D-2222-2222--------2222-2222--------2222-2222---------| (X1)
A---------------------------22222222---------55555555-|
E----------33333333-----------------------------------|

  VERSE (x2)
G-------------------|-------14-12-11-12P11---|----7H9-11-9-7/9-11-|-9-9-7---------7-|
D-------------------|---------------------12-|-9-9----------------|------9-7-5-5-7--|
A-3-3-3-5-3-2-3-2-0-|----3-5-----------------|--------------------|-----------5-----|
E-------------------|-3-3--------------------|--------------------|-----------------|

  CHORUS
G-----------------------------------------------------|
D-2222-2222--------2222-2222--------2222-2222---------| (X1)
A---------------------------22222222---------55555555-|
E----------33333333-----------------------------------|

G-----------------------|
D-----------------------|
A-33333333333333333-----|
E------------------3~---|
Suggest correction
Creating personal tab
Creating personal tab
You can edit any tab online and save it as your Personal.

You can edit, replace or remove any tab part or add personal notes – all changes will be seen only by you.

Personal tabs can be accessed anytime from any device, even offline.
Learn more »
Give kudos to tab author, rate the tab!
1 2 3 4 5
comments
print report bad tab
3 comments total.
0 reply
stiix 10 Oct 04, 2007 07:34 AM

I'm not really done examining this. but the intro is right on. and so far the rest really seems to work.. Great job man. haha it really wasn't working for me earlier but now after dropping my girl off at work and getting alot more coffee in me it's all making sence. coffee!

0 reply
stiix 10 Oct 04, 2007 10:22 AM

VERSE (x2)
G---------------|----------|---------14-12-11-12P11---|----7H9-11-9-7-9/11-|
D---------------|----------|-----------------------12-|-9-9----------------|
A-3-3-3-5-3-2-3-|-2-3-2-0--|------3-5-----------------|--------------------|
E---------------|----------|-3-3-3--------------------|--------------------|

so far that sounds better to me. might need more coffee for that last little part tho

0 reply
stiix 10 Oct 04, 2007 10:24 AM

it's not much different but that 7/9 slide that was in thier is definatly different notes and a 9/11 slide

guest
You may want to rate the tab now too:
select rating
Wanna post a correction for this tab? Suggest correction