Oops, an error
Loading. Please wait.

Xmas Has Been Xed Tab

by NOFX
2,913 views 9 this week
1 commentread comment
1 2 3 4 5
1 last vote to show rating
add to favorites
launch autoscroll
font size
0
reset
how to read this tab
guitar tuner
Autoscroll
slow
fast
+/-
esc
set tempo
stop
Help us to improve Ultimate-Guitar.com Take our survey!
×
Author
XMAS HAS BEEN X'ED
NOFX
tabbed bay:BEPPE


#intro

E/-----------------------------3------|
B/------5------------3-------3--------|
G/---0--------2------------4----------|
D/---------------0-3-----5------------|
A/3-----------------------------------|
E/------------------------------------|

E/------------------------------------------------------------|
B/------------------------------------------------------------|
G/5555-7777-----------5555-5555-7777--------------------------|
D/5555-7777-1212-1010-5555-5555-7777-1212-1010----------------|
A/3333-5555-8-8-7-7---3333-3333-5555-8-8-7-7------------------|
E/------------------------------------------------------------|

#verse

first part

PM---------------------------------------------|
E/---------------------------------------------|
B/---------------------------------------------|
G/5555-7777----------------5555-7777-----------|
D/5555-7777-5555-7777-3333-5555-7777-5555------|
A/3333-5555-5555-7777-3333-3333-5555-5555------|
E/----------3333-5555-1111-----------3333------|

second part

E/----------------------------------------------|
B/----------------------------------------------|
G/5555-7777-----------5555----------------------|
D/5555-7777-5555-7777-5555--3333-5555-----------|
A/3333-5555-5555-7777-3333--3333-5555-----------|
E/----------3333-5555-------1111-3333-----------|



#rit

E/--------------------------------------------|
B/--------------------------------------------|
G/5555-----------5555----------------55555----|
D/5555-3333-5555-5555-7777-3333-5555-55555----|
A/3333-3333-5555-3333-7777-3333-5555-33333----|
E/-----1111-3333------5555-1111-3333----------|


INTRO
VERSE
RIT
VERSE
RIT X2
Suggest correction
Give kudos to tab author, rate the tab!
1 2 3 4 5
comments
print report bad tab
1 comment total.
0 reply
william.beach.5 10 Nov 22, 2013 01:26 PM

#intro


E/-----------------------------1------|
B/------5------------3-------3--------|
G/---0-------------2-------4----------|
D/---------------3-------5------------|
A/3------------5----------------------|
E/------------------------------------|

E/------------------------------------------------------------|
B/------------------------------------------------------------|
G/5555-7777-7-7-5-5-5-5-5555-5555-7777-7-7-5-5-5-5------------|
D/5555-7777-x-x-x-x-x-x-5555-5555-7777-x-x-x-x-x-x------------|
A/3333-5555-8-8-7-7-5-5-3333-3333-5555-8-8-7-7-5-5------------|
E/------------------------------------------------------------|

guest
You may want to rate the tab now too:
select rating
Wanna post a correction for this tab? Suggest correction