Oops, an error
Loading. Please wait.

Youre Wrong tab

version 1
version 1

Whole song

Interactive

by NOFX
21,424 views 3 this week
2 commentsread comments
1 2 3 4 5
x 6
add to favorites
×
Save as Personal and add changes to this tab that will be seen only by you. Learn more ›
×
You can save this tab as Personal to edit and correct it or add notes. All changes will be seen only by you. Learn more »
launch autoscroll
font size
0
reset
how to read this tab
guitar tuner
edit
Autoscroll
slow
fast
+/-
esc
set tempo
stop
Song: You're Wrong
Band: Nofx


Please no mean comments



intro - I guess you strum
E--2-2-2-2-2-2-2-2-2-3-3-3--------|
B--3-3-3-3-3-3-2-2-2-0-0-0--------|
G--4-4-4-2-2-2-3-3-3-0-0-0--------|
D--4-4-4-------4-4-4-0-0-0--------|
A--------------------2-2-2--------|
E--------------------3-3-3--------|
:
# verse X2
E--3-3-3-3-3-3-2-2-2-2-2-2------------------2-2-2-2-2-2--------|
B--0-0-0-0-0-0-3-3-3-2-2-2-(~ palm muted ~)-2-2-2-2-2-2--------|
G--0-0-0-0-0-0-2-2-2-3-3-3-4-4-4-4-6-6-6-6--3-3-3-3-3-3--------|
D--0-0-0-0-0-0-------4-4-4-5-5-5-5-7-7-7-7--4-4-4-4-4-4--------|
A--2-2-2-2-2-2-------------5-5-5-5-7-7-7-7---------------------|
E--3-3-3-3-3-3-------------3-3-3-3-5-5-5-5---------------------|
:  
# bridge X2 - different strumming here
E--3-3-3-3-2-2-2-2-0-0-0-0-2-2-2-2-------|
B--0-0-0-0-3-3-3-3-2-2-2-2-3-3-3-3-------|
G--0-0-0-0-2-2-2-2-2-2-2-2-4-4-4-4-------|
D--0-0-0-0---------2-2-2-2-4-4-4-4-------|
A--2-2-2-2-------------------------------|
E--3-3-3-3-------------------------------|
:
then play verse X2 and bridge
:
# bridge2 X2 
E--3-3-3-3-2-2-2-2-0-0-0-0-2-2-2-2-------|
B--0-0-0-0-3-3-3-3-2-2-2-2-2-2-2-2-------|
G--0-0-0-0-2-2-2-2-2-2-2-2-3-3-3-3-------|
D--0-0-0-0---------2-2-2-2-4-4-4-4-------|
A--2-2-2-2-------------------------------|
E--3-3-3-3-------------------------------| 
:
# outro
E---------------|
B---------------|
G---4--7--6--4--|
D---5--7--7--5--|
A---5--5--7--5--|
E---3--5--5--3--|

Hey if this tab is wrong or bad
plz help.

            
            
Suggest correction
Creating personal tab
Creating personal tab
You can edit any tab online and save it as your Personal.

You can edit, replace or remove any tab part or add personal notes – all changes will be seen only by you.

Personal tabs can be accessed anytime from any device, even offline.
Learn more »
comments
print report bad tab
2 comments total.
0 reply
Haanz 132 Aug 04, 2010 12:26 PM

I like this one better than the chords one. I don't know if it's note for note accurate, but it hits me as more correct than the other, more rated, more commented, more convoluted chord tab.

0 reply
eikichi182 134 Jan 24, 2011 11:11 AM

it's cool, but in the verse i'd put an Am chord before the G chord

guest
You may want to rate the tab now too:
select rating
Wanna post a correction for this tab? Suggest correction