Oops, an error
Loading. Please wait.

Never Forget You Bass Tab

version 1
version 1

Whole song

Interactive

2,358 views 6 this week
no commentswrite comment
1 2 3 4 5
2 more votes to show rating
add to favorites
launch autoscroll
font size
0
reset
guitar tuner
Autoscroll
slow
fast
+/-
esc
set tempo
stop
Help us to improve Ultimate-Guitar.com Take our survey!
×
Author
Difficulty
novice
Hello everyone! This is the original version of the song; THE BASSIST OF THE 
NOISETTES USE THIS TO PLAY DURING LIVE PERFORMANCES. Thanks!

by emaper


Verse1

G|--------------------------------------------|
D|----------------------7-9--9-9--9--9-9-7----|x3
A|--5--5-5--5--5/9--------------------------9-|
E|--------------------------------------------|

Pre-chorus
G|-------------------------------------------|
D|---------------------9/12------------------|x2
A|--10--10-10--10--10------5--5-5--5--5-5----|
E|-----------------------------------------5-|

Chorus

G|--------------------------------------------|
D|--------------------------------------------|
A|-----------55555555-------------------------|
E|--33333333----------55555555/22222222-------|

G|-------------------------------------------|
D|------------------------------5------------|
A|----------------------5--5-5----5--5-5-----|
E|--33333333/55555555------------------------|


Verse 2

G|--------------------------------------------|
D|----------------------7-9--9-9--9--9-9-7----|x2
A|--5--5-5--5--5/9--------------------------9-|
E|--------------------------------------------|

Pre-chorus
G|-------------------------------------------|
D|---------------------9/12------------------|x2
A|--10--10-10--10--10------5--5-5--5--5-5----|
E|-----------------------------------------5-|


Chorus 2

G|--------------------------------------------|
D|--------------------------------------------|
A|-----------55555555-------------------------|
E|--33333333----------55555555/22222222-------|

G|-------------------------------------------|
D|------------------------------5------------|
A|----------------------5--5-5----5--5-5-----|
E|--33333333/55555555------------------------|

G|--------------------------------------------|
D|--------------------------------------------|
A|-----------55555555-------------------------|
E|--33333333----------55555555/22222222-------|

G|-------------------------------------------|
D|------------------------------5------------|
A|----------------------5--5-5----5--5-5-----|
E|--33333333/55555555------------------------|


Bridge
G|--------------------------------------|
D|--------------------------------------|
A|--7-------2-------10-------9----------|
E|--------------------------------------|

G|--------------------------------------|
D|--------------------------------------|
A|--7-9-10-12-----------7-9-10-12---9---|
E|------------7-9-10-12-----------------|


Verse 3

G|-----------------------------------------------|
D|------------------9-11--11-11--11--11-11-9-----|x2
A|--7--7-7--7--7/11---------------------------11-|
E|-----------------------------------------------|


Chorus 3

G|------------------------------------------------------|
D|--77777777----------99999999--------------------------|
A|-----------77777777----------11-11-11-11-11-11-11-11--|
E|------------------------------------------------------|

G|--------------------------------------|
D|--77777777-99999999--------7----------|
A|---------------------7--7-7---7--7-7--|
E|--------------------------------------|

G|------------------------------------------------------|
D|--77777777----------99999999--------------------------|
A|-----------77777777----------11-11-11-11-11-11-11-11--|
E|------------------------------------------------------|

G|--------------------------------------|
D|--77777777-99999999--------7----------|
A|---------------------7--7-7---7--7-7--|
E|--------------------------------------|


End
G|--------------------------------------|
D|--77777777-99999999--------7----------|
A|---------------------7--7-7---7--7-7--|
E|--------------------------------------|

G|--------------------------------------|
D|--77777777-99999999--------7----------|
A|---------------------7--7-7---7--7-7--|
E|--------------------------------------|
Suggest correction
Give kudos to tab author, rate the tab!
1 2 3 4 5
comments
print report bad tab
guest
You may want to rate the tab now too:
select rating
Wanna post a correction for this tab? Suggest correction