Oops, an error
Loading. Please wait.

Black Raven Tab

790 views 1 this week
no commentswrite comment
1 2 3 4 5
3 more votes to show rating
add to favorites
launch autoscroll
font size
0
reset
how to read this tab
guitar tuner
Autoscroll
slow
fast
+/-
esc
set tempo
stop
Help us to improve Ultimate-Guitar.com Take our survey!
×
#------------------------------------PLEASE  NOTE----------------------------------------------#
#This file is the author's own work and represents their interpretation of the #
#song. You may only use this file for private study, scholarship, or research#
#----------------------------------------------------------------------------------------------#

G: Nokturnal Mortum - Black Raven

Tabbed Tuesday, Jan 15 2008


Band   Nokturnal Mortum 
Album: NeChrist
Song: Black Raven

Transcribed By: Elathen
Email:         ningalia87@yahoo.com


. - palm mute / - slide up to
 - slide down to ~ - vibrato
h - hammer on p - pull off
, - slight palm mute [] - second time
" " tremolo note <> - Trill

Suffixes for bend
f - full bend h - half bend
ph - pinched harmonic q - quarter bend
t - tap bend * - see comment
^ - Hold bend r - release bend
x – Staccato ~ - vibrato bend

Tuning E A D G B E

Interlude - Riff  A                        x3
|--------------------------------------------|
|--2-2-2-2-2--4--5--4--2---[6]--[4]----------| 
|--4-4-4-4-4--4--4--4--4---[4]--[4]----------| 
|--------------------------------------------|  
|--------------------------------------------|
|--------------------------------------------|
 
Riff B                     x1
|-----------------------------|
|-1-1-1-1--0-0--1--0----------| 
|-2-2-2-2--2-2--2--2----------| 
|-----------------------------|  
|-----------------------------|
|-----------------------------|

Riff 1                         x3                         x1
|--------------------------------|--------------------------|
|--------------------------------|--------------------------|
|--------------------------------|--------------------------|
|--2----4-4--4-4-4-4-------------|--2-2---3-3----1----------|
|--2----2-2--2-2-2-2-------------|--2-2---3-3----1----------|
|--0----2-2--2-2-2-2-------------|--0-0---1-1----2----------|

Fill 1
|-----------------------------------------------|
|-----------------------------------------------| 
|--2-2-2-2-2-2--7-7-7-7-7---5-5-5-5-5-5---------| 
|--2-2-2-2-2-2--7-7-7-7-7---5-5-5-5-5-5---------|  
|--0-0-0-0-0-0--5-5-5-5-5---3-3-3-3-3-3---------|
|-----------------------------------------------|

Riff 2            
|--------------------------------------|
|--------------------------------------|
|--2-2---3-----------------------------| 
|--2-2---3----4-4--4-4-----------------|  
|--0-0---1----4-4--4-4-----------------|
|-------------2-2--2-2-----------------|

Riff 2b
|--------------------------------------|
|--------------------------------------| 
|--------------------------------------| 
|---4"------/6"---7"-------------------|  
|---4"------/6"---7"-------------------|
|---2"------/4"---5"-------------------|

Play Riff 2/2b x 6 each 

Play Riff 1/1b x 3
 
Riff 3           x3                         x1                 
|-------------------|--------------------------|
|-------------------|--------------------------| 
|-------------------|--------------------------| 
|-2-2---5-5-5/6\5---|--7-7--7-7--/8-8--8-8-----|
|-2-2---5-5-5/6\5---|--7-7--7-7--/8-8--8-8-----|
|-0-0---3-3-3/4\3---|--5-5--5-5--/6-6--6-6-----|

Riff 4
|---------------------------------------------------|
|---------------------------------------------------| 
|-----------------5-5-5-5----4-4-4-4-4-4------------| 
|--2--2-2-2-2-2---5-5-5-5----4-4-4-4-4-4------------|  
|--2--2-2-2-2-2---3-3-3-3----2-2-2-2-2-2------------|
|--0--0-0-0-0-0-------------------------------------|

Gtr 2             x3                    x1
|--------------3^---|------3^-----2^------|
|--0---3---0--------|--0------------------| 
|-------------------|---------------------| 
|-------------------|---------------------|  
|-------------------|---------------------|
|-------------------|---------------------|
  
Riff 5 - Fill                      2nd time (different ending)
|----------------------------------|----------------|
|----------------------------------|----------------| 
|--2--2-2-2---3-3-3-3--------------|----------------| 
|--2--2-2-2---3-3-3-3---4--4-4-4-4-|--5--5-5-5------|  
|--0--0-0-0---1-1-1-1---4--4-4-4-4-|--5--5-5-5------|
|-----------------------2--2-2-2-2-|--3--3-3-3------|

Play Rlff 4 x 3

Play Riff 5 x 2

Riff 6 - Fill 2
|---------------------------------------------|
|---------------------------------------------| 
|---------------------------------------------| 
|--2-2---4-4-----2-2---5-5--------------------|  
|--2-2---4-4-----2-2---5-5--------------------|
|--0-0---2-2-----0-0---3-3--------------------|

Play Rlff 3 x 6

Riff 7 - Fill 3
|--------------------------------------|
|--------------------------------------| 
|--------------------------------------| 
|--4-4-4-4-4-4---5-5-5-5-5-5-----------|  
|--4-4-4-4-4-4---5-5-5-5-5-5-----------|
|--2-2-2-2-2-2---3-3-3-3-3-3-----------|

Play Rlff 2 x 4

Play Rlff 2b x 1

Play Rlff 1/1b x 3 - End.
Suggest correction
Give kudos to tab author, rate the tab!
1 2 3 4 5
comments
print report bad tab
guest
You may want to rate the tab now too:
select rating
Wanna post a correction for this tab? Suggest correction