Oops, an error
Loading. Please wait.

Goat Horns Tab

version 1
version 1

Intro

Whole song

598 views 1 this week
no commentswrite comment
1 2 3 4 5
please rate
add to favorites
launch autoscroll
font size
0
reset
how to read this tab
guitar tuner
Autoscroll
slow
fast
+/-
esc
set tempo
stop
Help us to improve Ultimate-Guitar.com Take our survey!
×
Author
Difficulty
novice
All I wanted to/could tab.  Psh, you're welcome!

|-----------------------------------------------------------------------|
|-----------------------------------------------------------------------|
|-----------------------------------------------------------------------|
|--------3-------------3-------------4-------------4-------------4------|
|-----3-----3-------3-----3-------3-----3-------3-----3-------4-----4---|
|--3-------------3-------------3-------------3-------------4------------|

 -----------------------------------------|
 -----------------------------------------|
 -----------------------------------------|
 -------4-------------3-------------3-----|
 ----4-----4-------3-----3-------3-----3--|
 -4-------------3-------------3-----------|

http://www.thepaganfront.com/oriana/nm/#
Suggest correction
Give kudos to tab author, rate the tab!
1 2 3 4 5
comments
print report bad tab
guest
You may want to rate the tab now too:
select rating
Wanna post a correction for this tab? Suggest correction