Oops, an error
Loading. Please wait.

In The Fire Of The Wooden Churches Tab

397 views 1 this week
no commentswrite comment
1 2 3 4 5
please rate
add to favorites
launch autoscroll
font size
0
reset
how to read this tab
guitar tuner
Autoscroll
slow
fast
+/-
esc
set tempo
stop
Help us to improve Ultimate-Guitar.com Take our survey!
×
#------------------------------------PLEASE  NOTE----------------------------------------------#
#This file is the author's own work and represents their interpretation of the #
#song. You may only use this file for private study, scholarship, or research#
#-----------------------------------------------------------------------------------------------#

G: Nokturnal Mortum -  In the Fire of the Wooden Churches


Tabbed Friday, Jan 18 2008


Band   Nokturnal Mortum 
Album: NeChrist
Song: In the Fire of the Wooden Churches

Transcribed By: Elathen
Email:         ningalia87@yahoo.com


. - palm mute / - slide up to
 - slide down to ~ - vibrato
h - hammer on p - pull off
, - slight palm mute [] - second time 
" " tremolo note <> - Trill

Suffixes for bend
f - full bend h - half bend
ph - pinched harmonic q - quarter bend
t - tap bend * - see comment
^ - Hold bend r - release bend
x – Staccato ~ - vibrato bend

Tuning E A D G B E

Riff 1           x4  Riff 1b                         x1
|-------------------|----------------------------------|
|--3-3----2-2-------|----------------------------------| 
|--2-2----2-2-------|----------------------------------| 
|--0-0----0-0-------|--2--2-2-2-2--2-2-2-2-2-2---------|  
|-------------------|--2--2-2-2-2--2-2-2-2-2-2---------|
|-------------------|--0--0-0-0-0--0-0-0-0-0-0---------|

Rlff 2                                               x2
|------------------------------------------------------|
|------------------------------------------------------| 
|------------------------------------------------------| 
|--0"-----0"--------0"------2"----0"-----0"------0"----|  
|--2"-----5"--------0"------0"----0"-----4"------0"----|
|------------------------------------------------------|

Rlff 2b                                x2
|-----------------------------------------|
|-----------------------------------------| 
|-----------------------------------------| 
|--0"------0"-----=-2"-----0"-------------|  
|--4"------5"-------0"-----0"-------------|
|-----------------------------------------|

Riff 2c                     Play 3 times
|-----------------------------------------|
|-----------------------------------------| 
|-----------------------------------------| 
|--0"-----0"------2"-----0"------0"----1"-|  
|--2"-----0"------0"-----2"------0"----0"-|
|-----------------------------------------|

Riff 3                                                 Play 4 times
|-----------------------------------------------------------------------|
|-----------------------------------------------------------------------| 
|-------------------2"----------------------------------------------4"--| 
|--2"--4"--5"--4"-------5"h--4"h---5"h--4"h---2"---4"---5"---4"-----2"--|  
|-----------------------------------------------------------------------|
|-----------------------------------------------------------------------|

Play Riff 2c x 4

Play Riff 3 x 4

Play Riff 1 (w/Acoustic arrangment) x 2 / Play Riff 1 b x 2

Riff 4                                      
|---------------------------------------------|
|---------------------------------------------| 
|---------------------------------------------| 
|---------2--2----6-6-6-6-6-6-6---------------|  
|--2"-----0--0----4-4-4-4-4-4-4----3--3--2----|
|--0"------------------------------1--1--0----|
                                   .  .  .

Riff 5 - Fill                         
|---------------------------------------|
|---------------------------------------| 
|---------------------2-----------------| 
|--2---2--2--2--2-----2-----------------|  
|--0---0--0--0--0-----0-----------------|
|---------------------------------------|

Acouatic Interlude:    x4                         x2
|------------------------|--------------------------|
|--3--3---2---2--2--2----|--5--5---4--4--4--4-------| 
|--3--3---4---4--4--4----|--4--4---4--4--4--4-------| 
|--0--0---0---0--0--0----|--0--0---0--0--0--0-------|  
|------------------------|--------------------------|
|------------------------|--------------------------|
                                 
Riff 6                       2nd ending             3rd ending                                    
|--------------------------|-----------------------|----------------------|
|--------------------------|-----------------------|----------------------| 
|--------------------------|-----------------------|----------------------| 
|--0--0--2--2---0--0--0--0-|-3--3--2--2---3--3--2--|--3-3--2--2-3--5-5-5--|  
|--------------------------|-----------------------|----------------------|
|--------------------------|-----------------------|----------------------|

Riff 7 - Fill 2            x2                x1
|----------------------------|-1--1-1--1--------|
|----------------------------|-2--2-2--2--0--1--| 
|--0--0---0--0----0---0--0---|------------2--2--| 
|--0--0---0--0----0---2--3---|------------------|  
|----------------------------|------------------|
|----------------------------|------------------|

Riff 8 - Ending.                     Play 3 times
|----------------------------------------------------|
|----------------------------------------------------| 
|----------------------------------------------------| 
|---2--2-2-2----3-3-3----5-5-5-5----7--7-7-7-7-------|  
|---2--2-2-2----3-3-3----5-5-5-5----7--7-7-7-7-------|
|---0--0-0-0----1-1-1----3-3-3-3----5--5-5-5-5-------|


Suggest correction
Give kudos to tab author, rate the tab!
1 2 3 4 5
comments
print report bad tab
guest
You may want to rate the tab now too:
select rating
Wanna post a correction for this tab? Suggest correction