Oops, an error
Loading. Please wait.

Kuyaviya Tab

742 views 1 this week
no commentswrite comment
1 2 3 4 5
please rate
add to favorites
launch autoscroll
font size
0
reset
how to read this tab
guitar tuner
Autoscroll
slow
fast
+/-
esc
set tempo
stop
Help us to improve Ultimate-Guitar.com Take our survey!
×
Author
Difficulty
novice
-----------------------------------------------------------------------------
                             Kuyaviya - Nokturnal Mortum
-----------------------------------------------------------------------------
Tabbed by:  Zach Rewald
Email:

Tuning:  Both guitars - standard (EADGBe)

Sorry for the bad spacing between the notes.  Listen to the song for the correct timing.


  Riff 1
e|-------------------------------------------------------------------|
B|-------------------------------------------------------------------|
G|-------------------------------------------------------------------|
D|-------------------------------------------------------------------|
A|-------------------------------------------------------------------|
E|--'5'----------------------------'1'--------------'0'--------------|




  Riff 1b
e|-------------------------------------------------------------------|
B|-------------------------------------------------------------------|
G|-------------------------------------------------------------------|
D|-------------------------------------------------------------------|
A|-------------------------------------------------------------------|
E|--'5'------------------------0-0-'1'----------0-0-'0'--------------|
                               X X              X X



  Riff 1c
e|-------------------------------------------------------------------|
B|-------------------------------------------------------------------|
G|-------------------------------------------------------------------|
D|-------------------------------------------------------------------|
A|-------------------------------------------------------------------|
E|--'5'------------------------0-0-'1'--------------'0'--------------|
                               X X



  Riff 2
e|-------------------------------------------------------------------|
B|-------------------------------------------------------------------|
G|-------------------------------------------------------------------|
D|--'7'--'10'--'9'--'10'--'7'--'10'--'9'--'10'--'7'--'10'--'9'--'10'-|
A|-------------------------------------------------------------------|
E|-------------------------------------------------------------------|


  con.
e|---------------|
B|---------------|
G|---------------|
D|-'9'-----------|
A|---------------|
E|---------------|




  Riff 2b
e|--------------------------------------------------------------------|
B|--------------------------------------------------------------------|
G|--------------------------------------------------------------------|
D|--'10'-------'9'--------'7'--------'9'--'10'-------------'12'--'10'-|
A|--------------------------------------------------------------------|
E|--------------------------------------------------------------------|


  con.
e|---------------|
B|---------------|
G|---------------|
D|-'9'-----------|
A|---------------|
E|---------------|




  Riff 3
e|--------------------------------------------------------------------------|
B|--------------------------------------------------------------------------|
G|--------------------------------------------------------------------------|
D|--------------------------------------------------------------------------|
A|--0----------------------0----------------------0----------------------0--|
E|-------------------111111-----------------111111-----------------111111---|
    *                (ones)*                (ones)*                (ones)*


  con.
e|---------------------|
B|---------------------|
G|---------------------|
D|---------------------|
A|---------------------|
E|--------------111111-|
                (ones)      



  Riff 4
e|--------------------------------------------------------------------------|
B|--------------------------------------------------------------------------|
G|--------------------------------------------------------------------------|
D|--------------------------------------------------------------------------|
A|--'0'-------------------------'0'------------------------------'0'--------|
E|----------------'1'-------------------------'1'---------------------------|


  con.
e|-------------------------------------------------------|
B|-------------------------------------------------------|
G|-------------------------------------------------------|
D|-------------------------------------------------------|
A|-----------------'0'-----------------------------------|
E|---'1'-------------------------'1'---'3'---'4'---'3'---|




  Riff 5
e|----------------------------------------------------------------|
B|----------------------------------------------------------------|
G|----------------------------------------------------------------|
D|----------------------------------------------------------------|
A|----------------------------------------------------------------|
E|--'5'-------------------------'6'------------'5'----------------|


  con.
e|------------------------|
B|------------------------|
G|------------------------|
D|------------------------|
A|------------------------|
E|---------'8'------------|




  Riff 6
e|-------------------------------------------------------------------|
B|-------------------------------------------------------------------|
G|-------------------------------------------------------------------|
D|-------------------------------------------------------------------|
A|--'0'--------------'1'---------------------------------------------|
E|------------------------------------'1'----------------------------|




  Riff 7
e|-------------------------------------------------------------------|
B|-------------------------------------------------------------------|
G|-------------------------------------------------------------------|
D|-------------------------------------------------------------------|
A|-------------------------------------------------------------------|
E|--'5'----------------------------'6'--------------'1'--------------|



  Riff 7b
e|-------------------------------------------------------------------|
B|--'5'------'8'---'6'---'5'------'8'---'6'-'3'-------'6'---'5'------|
G|--------------------------------------------------------------'2'--|
D|-------------------------------------------------------------------|
A|-------------------------------------------------------------------|
E|-------------------------------------------------------------------|


  con.
e|--------------|
B|----'1'---'3'-|
G|--------------|
D|--------------|
A|--------------|
E|--------------|



  Riff 8
e|--------------------------------------------------------------------------|
B|--------------------------------------------------------------------------|
G|--------------------------------------------------------------------------|
D|--------------------------------------------------------------------------|
A|--------------------------------------------------------------------------|
E|--1-1-1-1-1----1-1-1-1-1-1-1-1-1-1-1----1-1-1-1-1-1-3-3-3-3-3----3-3-3-3-3|


  con.
e|------------------|
B|------------------|
G|------------------|
D|------------------|
A|------------------|
E|-3-'5'------------|




  Riff 8b
e|--------------------------------------------------------------------------|
B|--------------------------------------------------------------------------|
G|--------------------------------------------------------------------------|
D|--------------------------------------------------------------------------|
A|--------------------------------------------------------------------------|
E|--1-1-1-1-1----1-1-1-1-1-1-1-1-1-1-1--1-1--1--1-1-1-1-1-3-3-3-3-3--3-3--3-|


  con.
e|--------------------------|
B|--------------------------|
G|--------------------------|
D|--------------------------|
A|--------------------------|
E|-3-3-3-3-3-'5'------------|




  Riff 8c
e|--------------------------------------------------------------------------|
B|--------------------------------------------------------------------------|
G|--------------------------------------------------------------------------|
D|--------------------------------------------------------------------------|
A|--------------------------------------------------------------------------|
E|--'1'-------------------------------'3'----------------'5'----------------|




  Riff 9
e|----------------------------------------------------------------|
B|----------------------------------------------------------------|
G|----------------------------------------------------------------|
D|----------------------------------------------------------------|
A|--'3'----'2'--'0'----'3'----'2'--'0'----'5'----'3'--'2'----'3'--|
E|----------------------------------------------------------------|


  con.                 |
e|---------------------|-----------------------x2-------------------------|
B|---------------------|--------------------------------------------------|
G|---------------------|--------------------------------------------------|
D|---------------------|--------------------------------------------------|
A|--'5'--'3'--'2'------|-'3'----'2'--'0'----'3'----'2'--'0'----'5'----'3'-|
E|-----------------'0'-|--------------------------------------------------|


  con.                              |
e|----------------------------------|
B|----------------------------------|
G|----------------------------------|
D|---------------'0'--'2'--'0'------|
A|-'2'----'3'-------------------'0'-|
E|----------------------------------|




  Riff 10
e|-------------------------------------------------------------------|
B|-------------------------------------------------------------------|
G|-------------------------------------------------------------------|
D|-'10'--'9'--'7'------------'10'-'12'-'10'--'9'---'10'--'12'--'14'--|
A|-------------------------------------------------------------------|
E|-------------------------------------------------------------------|


  con.
e|-------------------------------------------|
B|-------------------------------------------|
G|-------------------------------------------|
D|--'12'-'14'-'15'----'14'-'12'-'10'--'9'----|
A|-------------------------------------------|
E|-------------------------------------------|



  Ending.
e|---------------------------|
B|---------------------------|
G|---------------------------|
D|---------------------------|
A|--0----------------------0-|
E|-------------------111111--|
    *



Riff Order:

(Guitar 1)  +  (Guitar 2)

(Riff 1 x4)  +  (Riff 2 x4)
(Riff 1b x1)  +  (Riff 2b x1)
(Riff 1c x1)  +  (Riff 2b x1)
(Riff 1 x2)  +  (Riff 2b x2)
(Riff 1 x2)  +  (Riff 2 x2)
(Riff 1b x2)  +  (Riff 2b x2)
(Riff 1 x2)  +  (Riff 2b x2)

Riff 3 x1
Riff 4 x2
Riff 5 x4
Riff 6 x2

(Riff 7 x4)  +  (Riff 7b x4)

riff 6 x2

(Riff 7 x4)  +  (Riff 7b x4)

Riff 4 x2
Riff 8 x1

(Riff 8b x1, Riff 8c x2)  +  (Riff 9 x1)
(Riff 1 x8)  +  (Riff 10 x4)
(Riff 1 x4)  +  (Riff 2 x4)

Ending x1.





| *  Held Note
| '#' Tremelo pick
| /  slide up
| \  slide down
| h  hammer-on
| p  pull-off
| ~  vibrato
| +  harmonic
| x  Mute note
=============================================================================
Suggest correction
Give kudos to tab author, rate the tab!
1 2 3 4 5
comments
print report bad tab
guest
You may want to rate the tab now too:
select rating
Please do not post tabs as comments. Select "correction" instead!