Oops, an error
Loading. Please wait.

Je Ne Serai Jamais Ta Parisienne Tab

5,728 views 3 this week
no commentswrite comment
1 2 3 4 5
accurate
x 1
add to favorites
launch autoscroll
font size
0
reset
how to read this tab
guitar tuner
Tab Pro tools
  • play this tab
  • loop segment
  • change instrument
  • show fretboard
  • metronome
Autoscroll
slow
fast
+/-
esc
set tempo
stop
Contributor
-------------------------------------------------------------------------
JE NE SERAI JAMAIS TA PARISIENNE – Nolwenn Leroy
-------------------------------------------------------------------------
Tabbed by: Kengus

Standard tuning
Capo on second fret!

INTRO
   G            Dsus2            G            Dsus2
e|-------------------------------------------------|
B|-------3----------3------------------3--------3--|
G|-----0-----0----2---2h4p2p0--------0-----0--2----|
D|---0-----0----0-------------0----0-----0---------|
A|-------------------------------------------------|
E|-3-----------------------------3-----------------|

VERSE I
   G            GM7/B        C            Dsus2          Em           GM7/B
e|-----------------------------------0-----------------------------------|
B|-------3------------3----------1------------3----------------0---------|
G|-----0-----0------0-----0----0---0---0----2---2p0---0------0-----0-----|
D|---0-----0------4-----4-----------------0---------4------2-----2------4|
A|--------------2------------3----------------------------------------2--|
E|-3-----------------------------------------------------0---------------|
            C            Dsus2          G            GM7/B        C
e|------------------0----------------------------------------------------|
B|---3----------1------------3----------------3------------3----------1--|
G|-0-----0----0---0---0----2---2p0---0------0-----0------0-----0----0---0|
D|-----4-----------------0---------4------0-----0------4-----4-----------|
A|----------3----------------------------------------2------------3------|
E|--------------------------------------3--------------------------------|
        Dsus2          Em           GM7/B        C            Dsus2
e|-0-----------------------------------------------------0---------------|
B|----------3----------------0------------3----------1------------3---3--|
G|---0----2---2p0---0------0-----0------0-----0----0---0---0----2---2---2|
D|------0---------4------2-----2------4-----4-----------------0----------|
A|----------------------------------2------------3-----------------------|
E|---------------------0-------------------------------------------------|

PRE-CHORUS
   Em           GM7/B        Em           GM7/B        Em           Asus2
e|-----------------------------------------------------------------------|
B|-------0------------3------------0------------3------------0-----------|
G|-----0-----0------0-----0------0-----0------0-----0------0-----0------2|
D|---2-----2------4-----4------2-----2------4-----4------2-----2------2--|
A|--------------2-------------------------2-------------------------0----|
E|-0-------------------------0-------------------------0-----------------|
               C            Dsus2            G            Dsus2
e|-----------------------------------------------------------------------|
B|-------------------1----------3------------------3----------3----------|
G|-----------------0-----0----2---0h2p0---0------0-----0----2---2p0---0--|
D|-0h2p0----0----2-----2----0-----------4------0-----0----0---------4----|
A|-------h3----3---------------------------------------------------------|
E|-------------------------------------------3---------------------------|

CHORUS
   Em           Dsus2          Em           GM7/B        C            G
e|--------------------0--------------------------------------------------|
B|-------0----------3----------------0------------3----------1---1-------|
G|-----0-----0----2-----2p0--------0-----0------0-----0----0---0---0-----|
D|---2-----2----0-----------2----2-----2------4-----4-------------------0|
A|------------------------------------------2------------3---------------|
E|-0---------------------------0--------------------------------------3--|
            Am                       Dsus2
e|-------------------------------------------0---0--|
B|---3------1-------1---1-------1--------3--------3-|
G|-0-----0------2-----------2----------2---2---2----|
D|-----0------2---2---2---2---2---2--0--------------|
A|----------0---------------------------------------|
E|--------------------------------------------------|

INTERLUDE
   G            Dsus2        G            Dsus2
e|-----------------------------------------------|
B|-------3----------3--------------3----------3--|
G|-----0-----0----2---0---0------0-----0----2----|
D|---0-----0----0-------4------0-----0----0------|
A|-----------------------------------------------|
E|-3-------------------------3-------------------|

VERSE II
   G            GM7/B        C            Dsus2          Em           GM7/B
e|---------------------------------3-------------------------------------|
B|-------3------------3----------1-----1------3----------------0---------|
G|-----0-----0------0-----0----0-----0------2---2p0---0------0-----0-----|
D|---0-----0------4-----4-----------------0---------4------2-----2------4|
A|--------------2------------3----------------------------------------2--|
E|-3-----------------------------------------------------0---------------|
            C            Dsus2        G            GM7/B        C
e|----------------3------------0--------------------------------------3--|
B|---3----------1-----1------3---3----------3------------3----------1----|
G|-0-----0----0-----0------2-------5------0-----0------0-----0----0-----0|
D|-----4-----------------0--------------0-----0------4-----4-------------|
A|----------3--------------------------------------2------------3--------|
E|------------------------------------3----------------------------------|
      Dsus2          Em           GM7/B        C            Dsus2
e|---------------------------------------------------3------------0-2----|
B|-1------3----------------0------------3----------1-----1------3-----3--|
G|------2---2h4p2p0------0-----0------0-----0----0-----0------2----------|
D|----0----------------2-----2------4-----4-----------------0------------|
A|--------------------------------2------------3-------------------------|
E|-------------------0---------------------------------------------------|

PRE-CHORUS
   Em           GM7/B        Em           GM7/B        Em           Asus2
e|-----------------------------------------------------------------------|
B|-------0------------3------------0------------3------------0-----------|
G|-----0-----0------0-----0------0-----0------0-----0------0-----0------2|
D|---2-----2------4-----4------2-----2------4-----4------2-----2------2--|
A|--------------2-------------------------2-------------------------0----|
E|-0-------------------------0-------------------------0-----------------|
          C            Dsus2          G            Dsus2
e|---------------------------0---------------------------2------|
B|--------------1----------3----------------3----------3--------|
G|------------0-----0----2-----2p0--------0-----0----2-----0-2--|
D|-2---0----2-----2----0-----------0----0-----0----0------------|
A|---0----3-----------------------------------------------------|
E|------------------------------------3-------------------------|

[www.ultimate-guitar.com] [profile.ultimate-guitar.com/Kengus]

CHORUS
   Em           Dsus2    Em           GM7/B        C            G
e|--------------------0----------------------------------3---------------|
B|-------0----------3----------0------------3----------1-----1--------3--|
G|-----0---0------2----------0-----0------0-----0----0-----0--------0----|
D|---2-------2--0----------2-----2------4-----4-------------------0------|
A|------------------------------------2------------3---------------------|
E|-0---------------------0--------------------------------------3--------|
        Am                       Dsus2
e|------------------------0--------------0--------------------|
B|------1-----0-----1----------------3-----0------------------|
G|---0------2-----2-----2-----2----2---2-----2h4p2p0---0---0--|
D|-0------2-----2-----2-----2----0-------------------4---2----|
A|------0-----------------------------------------------------|
E|------------------------------------------------------------|

CHORUS
   Em           Dsus2        Em           GM7/B        C            G
e|--------------------0--------------------------------------3-----------|
B|-------0----------3-----3--------0------------3----------1-----1-------|
G|-----0-----0----2-----2--------0-----0------0-----0----0-----0---------|
D|---2-----2----0--------------2-----2------4-----4-------------------0--|
A|----------------------------------------2------------3-----------------|
E|-0-------------------------0--------------------------------------3----|
            Am                       Dsus2
e|------------------------------0----------0----|
B|---3------1-----0-----1--------------3-----3--|
G|-0-----0------2-----2-----2--------2---2------|
D|-----0------2-----2-----2---2----0------------|
A|----------0-----------------------------------|
E|----------------------------------------------|

***

INTRO
G  Dsus2  G  Dsus2

VERSE I
          G      GM7/B       C            Dsus2
Là où les eaux se mêlent, là où se finit la terre
      Em     GM7/B          C            Dsus2
Là où est si grand le ciel, là où se bat la mer
      G         GM7/B            C              Dsus2
Là où je deviens celle, qui pour toi reste un mystère
     Em                 GM7/B           C                Dsus2
Même si tu me trouves si belle, sous les feux de ta ville lumière

PRE-CHORUS
             Em             GM7/B
Qui voit Ouessant, voit son sang
           Em             GM7/B
Qui voit Molène, oublie sa peine
         Em             Asus2        C
Qui voit Sein, n’a plus peur du lendemain
            Dsus2                     G      Dsus2
Qui voit le Fromveur, entrevoit le bonheur

CHORUS
           Em         Dsus2
J’aimerais tant que tu me comprennes
      Em              GM7/B
Je ne serai jamais ta Parisienne
           C        G
J’aimerais tant que tu comprennes
    Am               Dsus2
Qu’ici ma place n’est pas la mienne

INTERLUDE
G  Dsus2  G  Dsus2

VERSE II
             G       GM7/B         C                Dsus2
Mais sur les rives de la Seine, je rêve toujours de pleine mer
         Em                  GM7/B               C               Dsus2
Ce n’est pas pour te faire de la peine, ce n’est pas pour jeter la pierre
         G                GM7/B             C               Dsus2
Ce n’est pas pour faire de scènes, ce n’est pas pour croiser le fer
         Em             GM7/B      C              Dsus2
Mais sur les rives de la Seine, je suis au bout de la terre

PRE-CHORUS
             Em             GM7/B
Qui voit Ouessant, voit son sang
           Em              GM7/B
Qui voit Molène, oublie sa peine
         Em             Asus2        C
Qui voit Sein, n’a plus peur du lendemain
            Dsus2                     G     Dsus2
Qui voit le Fromveur, entrevoit le bonheur

CHORUS
           Em         Dsus2
J’aimerais tant que tu me comprennes
      Em             GM7/B
Je ne serai jamais ta Parisienne
           C        G
J’aimerais tant que tu comprennes
    Am               Dsus2
Qu’ici ma place n’est pas la mienne

CHORUS
           Em         Dsus2
J’aimerais tant que tu me comprennes
      Em             GM7/B
Je ne serai jamais ta Parisienne
           C        G
J’aimerais tant que tu comprennes
    Am               Dsus2
Qu’ici ma place n’est pas la mienne.

=========================================================================
Comment, rate, appreciate!
comments
We did not receive enough feedback on this tab! Please rate:
print report bad tab
1 2 3 4 5
I want to post or [tab]
guest
You may want to rate the tab now too:
select rating
Please do not post tabs as comments. Select "correction" instead!