Oops, an error
Loading. Please wait.

Il Fiore Nero Tab

1,353 views 3 this week
2 commentsread comments
1 2 3 4 5
2 more votes to show rating
add to favorites
launch autoscroll
font size
0
reset
how to read this tab
guitar tuner
Autoscroll
slow
fast
+/-
esc
set tempo
stop
Help us to improve Ultimate-Guitar.com Take our survey!
×
Author
Difficulty
intermediate
_______________________________________________________

     Il Fiore Nero  (Nomadi)
_______________________________________________________
tabbed by Masho90



Re                  Sol
Così quando il sole muore

La                   Re
fiore perdi il tuo colore

Sol                La
le qualità che ti hanno reso vero

           Re          Sol La  Re
ma chi lo dice che il fiore è nero.

  (Re)                     Re
e|-10--------------------|------------------|
B|-------------12-10h12p-|-10-8-7-----------|
G|-----------------------|--------9-7-------|
D|-----------------------|------------------|
A|-----------------------|------------------|
E|-----------------------|------------------|
   ^   ^   ^   ^           ^    ^   ^   ^


Re             Sol
Come un popolo sotto l'oppressione

La             Re
come un asino sotto il bastone

Re               Sol
 come un bimbo sotto l'educazione

La                 Re
come uno schiavo sotto il padrone.


Re                  Sol
Così quando il sole muore

La                   Re
fiore perdi il tuo colore

Sol                La
le qualità che ti hanno reso vero

           Re          Sol La  Re
ma chi lo dice che il fiore è nero.

  (Re)                     Re
e|-10--------------------|------------------|
B|-------------12-10h12p-|-10-8-7-----------|
G|-----------------------|--------9-7-------|
D|-----------------------|------------------|
A|-----------------------|------------------|
E|-----------------------|------------------|
   ^   ^   ^   ^           ^    ^   ^   ^


Re             Sol
Come il corpo sotto la morale

La               Re
come il lavoro sotto il capitale

Re               Sol
 come il diverso sotto l'uguale

La                 Re
come l'imprevisto sotto il normale.


Re                  Sol
Così quando il sole muore

La                 Re
fiore perdi il tuo colore

Sol                La
le qualità che ti hanno reso vero

           Re          Sol La  Re
ma chi lo dice che il fiore è nero.

  (Re)                     Re
e|-10--------------------|------------------|
B|-------------12-10h12p-|-10-8-7---7-------|
G|-----------------------|--------9---------|
D|-----------------------|------------------|
A|-----------------------|------------------|
E|-----------------------|------------------|
   ^   ^   ^   ^           ^    ^   ^   ^


Re        Sol
Come Dio sotto la religione

La              Re
 come l'amore sotto la convenzione

Re                Sol
come la realtà sotto l'illusione

La                 Re
come un mattone sotto la distruzione.


Re                  Sol
Così quando il sole muore

La                  Re
fiore perdi il tuo colore

Sol                La
le qualità che ti hanno reso vero

           Re          Sol La  Re
ma chi lo dice che il fiore è nero.

           Re          Sol La  Re
ma chi lo dice che il fiore è nero.

(Re)

Re                  Sol
Così quando il sole muore

La                 Re
fiore perdi il tuo colore

Sol                La
le qualità che ti hanno reso vero

           Re          Sol La  Re
ma chi lo dice che il fiore è nero.



strumentale:

  (Re)                (Re)
e|-------------------|---------------------14-12-|
B|-------------------|----10-8-------------------|
G|------[drum]-------|---------9-7---------------|
D|-------------------|-------------7-/12---------|
A|-------------------|---------------------------|
E|-------------------|---------------------------|
   ^    ^    ^    ^    ^     ^   ^     ^

    Re                        Sol
e||-10----------------------|---7-5h7p5-------7-5-|
B||----10-12-7-10-7h8p7-----|-8---------8---------|
G||---------------------7-7-|---------------------|
D||-------------------------|---------------------|
A||-------------------------|---------------------|
E||-------------------------|---------------------|
    ^     ^    ^        ^     ^   ^     ^     ^

   La                          Re
e|-7/9-9-9-7h9p7-------------|-10-9-10-12-14-12-10--5---|
B|---------------10-10-12-10-|-------------------------7|
G|---------------------------|--------------------------|
D|---------------------------|--------------------------|
A|---------------------------|--------------------------|
E|---------------------------|--------------------------|
   ^     ^       ^     ^       ^          ^     ^   ^

   Sol                La                      La
e|-7--7-7-5-----7-5-|-7/9-9-9-7h9p7---------|---5-7-5-|
B|----------8-------|---------------10------|---------|
G|------------7-----|-----------------------|---------|
D|------------------|-----------------------|---------|
A|------------------|-----------------------|---------|
E|------------------|-----------------------|---------|
   ^    ^   ^   ^     ^     ^       ^   ^     ^   ^

   Re         Sol La   Re      
e|-10--10-----7---9--|-10--10--10-10------14-12-||
B|---------10--------|--------------------------||
G|-------------------|--------------------------||
D|-------------------|--------------------------|| (tutto x3)
A|-------------------|--------------------------||
E|-------------------|--------------------------||
   ^   ^      ^   ^    ^   ^   ^     ^


al terzo giro sostituire l'ultima battuta con questa:

   Re
e|-10--------------------||
B|-----------------------||
G|-----------------------||
D|-----------------------||
A|-----------------------||
E|-----------------------||
Suggest correction
Give kudos to tab author, rate the tab!
1 2 3 4 5
comments
print report bad tab
2 comments total.
0 reply
JANI GILMOUR 128 Feb 23, 2013 02:44 AM

Grazie mille ! Sei un mito!!!

0 reply
masho90 318 Feb 23, 2013 05:12 AM

figurati :)

guest
You may want to rate the tab now too:
select rating
Wanna post a correction for this tab? Suggest correction