Oops, an error
Loading. Please wait.

Mediterraneo Tab

520 views 1 this week
2 commentsread comments
1 2 3 4 5
please rate
add to favorites
launch autoscroll
font size
0
reset
how to read this tab
guitar tuner
Tab Pro tools
  • play this tab
  • loop segment
  • change instrument
  • show fretboard
  • metronome
×
Best way to learn
"Mediterraneo"
Autoscroll
slow
fast
+/-
esc
set tempo
stop
Contributor
Difficulty
intermediate
___________________________________________________________

           Mediterraneo (Nomadi)
___________________________________________________________
tabbed by Masho90




   SOLm                     REm
e|--------10--------------|------------------------|
B|-11--------13--11h13p11-|-10----------------8-10-|
G|------------------------|------------------------|
D|------------------------|------------------------|
A|------------------------|------------------------|
E|------------------------|------------------------|

   SIb         FA           DO              REm
e|------------------------|------------------------|
B|-11------11-10------10--|-----------------10-----|
G|-----10---------10------|-12---------------------|
D|------------------------|------------------------|
A|------------------------|------------------------|
E|------------------------|------------------------|

   SOLm                     REm
e|--------10--------------|------------------------|
B|-11--------13--11h13p11-|-10----------------8-10-|
G|------------------------|------------------------|
D|------------------------|------------------------|
A|------------------------|------------------------|
E|------------------------|------------------------|

   SOLm      REm    LA7     REm
e|------------------------|------------------------|
B|-11-10------------------|------------------------|
G|--------12-10-----9-----|-7----------------------|
D|------------------------|------------------------|
A|------------------------|------------------------|
E|------------------------|------------------------|



      SOLm           REm   SOLm            REm
Se tu sei serena con lui,  non lo tradire mai, 

       SOLm             REm         DO               LA7
questo enorme spirito d'acqua, che illumina i marinai, 

        SOLm            REm
dove il mare annuncia roccia, 

      SOLm                  REm
e la roccia annuncia altro mare,

      SOLm                    REm 
quella roccia e soltanto un'isola,

DO           REm 
dove poter sostare,


SOLm        REm         DO                REm
Popolazioni millenarie, son passate di qua, 

SOLm            REm
sopra un cargo, a difendere, 

DO    LA7     REm
la loro dignità,


SIb     FA     DO         FA    SIb      DO7   FA DO
ed il signore, di pelle scura, Principe dei Borboni,

SIb         FA    DO        FA    SOLm    REm/Fa LA7/Mi REm   
ha ancora addosso, sull'armatura, l'odore dei limooooooni,

SOLm    REm/Fa LA7/Mi REm  
l'odore dei limooooooni

SOLm       REm   DO         REm
Mediterraneo     Mediterraneo

SOLm         REm   DO      LA7  REm
Mediterraneooo       Mediterraneo


   SOLm                     REm
e|--------10--------------|------------------------|
B|-11--------13--11h13p11-|-10----------------8-10-|
G|------------------------|------------------------|
D|------------------------|------------------------|
A|------------------------|------------------------|
E|------------------------|------------------------|

   SIb         FA           DO              REm
e|------------------------|------------------------|
B|-11------11-10------10--|-----------------10-----|
G|-----10---------10------|-12---------------------|
D|------------------------|------------------------|
A|------------------------|------------------------|
E|------------------------|------------------------|

   SOLm                     REm
e|--------10--------------|------------------------|
B|-11--------13--11h13p11-|-10----------------8-10-|
G|------------------------|------------------------|
D|------------------------|------------------------|
A|------------------------|------------------------|
E|------------------------|------------------------|

   SOLm           REm   LA7     REm
e|---------------------------|---------------------|
B|-11-10h11p10---------------|---------------------|
G|-------------12-10----9----|-7-------------------|
D|---------------------------|---------------------|
A|---------------------------|---------------------|
E|---------------------------|---------------------|



Se sarai fedele a lui, lui ti accompagnerà, 

lungo il corso della tua vita, tra penisole e città, 

tra la gioia e la sconfitta, 

la vittoria ed il dolore, 

il tuo corpo avrà il suo fascino, 

la tua pelle porterà il suo odore,


e su da Tangeri, a Gibilterra, 

tra i continenti, il mare, 

e I'Atlantico, falso ed immobile, si sogna di rubare


e quante storie, celano i porti, 

dietro alle case bianche, 

di pescatori, di fibra dura, 

quasi in odore d'Oriente, quasi in odore d'Oriente

Mediterraneo  Mediterraneo  Mediterraneo  Mediterraneo 

Mediterraneo  Mediterraneo  Mediterraneo  Mediterraneo



   SIb          FA          DO             FA
e|------------------------|------------------------|
B|------------------------|---6/8-8-8--10--10--6---|
G|----7-7-7--9--10--5-----|------------------------|
D|------------------------|------------------------|
A|------------------------|------------------------|
E|------------------------|------------------------|
   ^      ^     ^    ^      ^       ^      ^    ^

   SIb        DO7           FA         DO
e|-----------------8------|------------------------|
B|-11--11-11--11---8------|-8/10--10---7/8---------|
G|-----10-10--------------|------------------------|
D|------------------------|------------------------|
A|------------------------|------------------------|
E|------------------------|------------------------|
   ^     ^    ^    ^        ^     ^    ^     ^

   SIb        FA            DO        FA
e|------------------------|------------------------|
B|------------------------|---6/8-8-8--10--10--6---|
G|----7-7-7--9--10--5-----|------------------------|
D|------------------------|------------------------|
A|------------------------|------------------------|
E|------------------------|------------------------|
   ^      ^     ^    ^      ^       ^      ^    ^

   SOLm       REm/Fa        LA7/Mi    REm
e|-----------------(10)---|(9)-------(10)----------|
B|-11--10-----------------|------------------------|
G|---------12-10----12----|-9---------7------------|
D|------------------------|------------------------|
A|------------------------|------------------------|
E|------------------------|------------------------|
   ^     ^    ^     ^       ^    ^    ^     ^

   SOLm       REm/Fa        LA7/Mi    REm
e|-----------------(10)---|(9)-------(10)----------|
B|-11--10-----------------|------------------------|
G|---------12-10----12----|-9-------9-7------------|
D|------------------------|------------------------|
A|------------------------|------------------------|
E|------------------------|------------------------|
   ^     ^    ^     ^       ^    ^    ^     ^

   SOLm       REm/Fa        LA7/Mi    REm
e|------------------10----|-9----12---10-----------||
B|-11--10-----10----------|-----------10-----------||
G|---------12-------------|------------------------||
D|------------------------|------------------------||
A|------------------------|------------------------||
E|------------------------|------------------------||
   ^     ^    ^     ^       ^    ^    ^     ^

comments
We did not receive enough feedback on this tab! Please rate:
print report bad tab
1 2 3 4 5
2 comments total.
0 reply
JANI GILMOUR wrote on May 25 2013, 06:32 am

Grande, grazie! Mi sembra quasi tutto corretto, forse un po' sbagliata l'intro e anzichè a7 io metterei a e basta..;) comunque ciao! È grazie

0 reply
masho90 wrote on May 25 2013, 07:03 am

prego :)
hai ragione A al posto di A7 ci sta bene lo stesso :)
grazie per la valutazione
Ciao!

I want to post or [tab]
guest
You may want to rate the tab now too:
select rating
Please do not post tabs as comments. Select "correction" instead!