Oops, an error
Loading. Please wait.

All Lies Bass Tab

759 views 1 this week
no commentswrite comment
1 2 3 4 5
2 more votes to show rating
add to favorites
launch autoscroll
font size
0
reset
guitar tuner
Autoscroll
slow
fast
+/-
esc
set tempo
stop
Help us to improve Ultimate-Guitar.com Take our survey!
×
Author
Difficulty
intermediate
song    - All Lies
artist  - NoMeansNo
album   - Wrong
bassist - Rob Wright

Standard tuning.
Slightly incomplete and probably inaccurate tab.
Send corrections etc. to orcslayer74@gmail.com
Enjoy!

Intro
G|------5---5-4---------------------------|
D|--5h7---7-----5-5-4---------------------|
A|0-------------------5-5-4---------------|
E|--------------------------5-5---3---5---|
 |
G|--------------5p4-------5---------------|
D|--------5p4---------5h7---7-5-7---------|
A|0-5p4-0-----0-----0-----------0---------|
E|----------------------------------------|
 |
G|------5---10-9--------------------------------|
D|--5h7---7------10-10-9------------------------|
A|0----------------------10-10-9----------------|
E|-------------------------------10-5---3---5---|
 |
G|--------------5p4-------5---------------|
D|--------5p4---------5h7---7-5-7---------|
A|0-5p4-0-----0-----0-----------0---------|
E|----------------------------------------|

interlude
I'm pretty unsure here, it appears to be D|5-777-5-777-5-7-| with something
like A|3-5-5-7 every now and then (listen to the song for rhythm). I think it
varies, but the sound is too noisy for me to figure it out (corrections
welcome).
Play A|3-5-7-3 the last time.

verse
G|----------------| I'm not sure if there's the low A in the song, not that
D|7-----7---7-7-7-| it makes much of a difference. When playing without lead
A|0-----0---0-0-0-| guitar, you can play D|5 on the first beat to keep the
E|----------------| groove going.

prechorus
G|----------------|
D|7-----7---7-7-7-| Like with the verse, you can play D|5 on the first beat.
A|5-----5---5-5-5-| I think the bass actually plays a D5 chord only at the 
E|----------------| beginning of each bar.
 |
G|5-----5---5-5-5-|
D|5-----5---5-5-5-|
A|----------------|
E|----------------|

chorus
G|----------------|
D|------2---2-2---| always start with this
A|----------------| 
E|0.------------0-|
 |1. & 3.            |2.                |4.
G|----------------| G|---------------| G|---------------|
D|----------------| D|------0---000-0| D|---------------|
A|------3---2-0---| A|---------------| A|------0---0-0-0|
E|3-3.----------3-| E|3-3.-----------| E|3-3-3----------|

song structure:
---------------
intro
interlude
 verse
  prechorus
   chorus
 verse
  prechorus
   chorus
interlude (a bit different, I think, sorry for not being able to tab that)
 verse (w/o bass)
  prechorus
   chorus
intro (first bar only)
Suggest correction
Give kudos to tab author, rate the tab!
1 2 3 4 5
comments
print report bad tab
guest
You may want to rate the tab now too:
select rating
Wanna post a correction for this tab? Suggest correction