Oops, an error
Loading. Please wait.

Everyday I Start To Ooze bass

278 views 6 this week
no commentswrite comment
1 2 3 4 5
2 more votes to show rating
add to favorites
×
Save as Personal and add changes to this tab that will be seen only by you. Learn more ›
×
You can save this tab as Personal to edit and correct it or add notes. All changes will be seen only by you. Learn more »
launch autoscroll
font size
0
reset
guitar tuner
edit
Autoscroll
slow
fast
+/-
esc
set tempo
stop
Author
About this tab version
Had one set of notes sitting one note lower than they should have. Was this info helpful? Yes No
NoMeansNo - Everyday I Start To Ooze

The main riff for most of the song is as follows. The second bar is the various which occurs at the end of
most of the verses:

G-----------------------|-----------------|
D-3-3-3-3-3-------------|-----------------|
A-----------2--3-5-5----|----------0-1-2--|
E-----------------------|-0-1-2-3-4-------|

There's a verse riff variation when he says "I heard they were dismembering people down the street...". This 
then returns to the regular verse riff after the transition which is in the second bar.

G-----------------3--2-----|--------------------------|
D-5-5-5-5-5--2----------3--|-5-5-5-5-5--2-------------|
A---------------3----------|---------------3---4------|
E--------------------------|--------------------------|

The chorus riff is the verse riff, but the transition out of the chorus is:

G-----------------------------3--|
D---------------------3---3-5----|
A--1-1-1-0--0-6-5-3-5---5--------|
E--------------------------------|

The disco funky mid section:

G-------------------------------|
D-----5-----3--------5-----3---5|
A-------3-5---5-3------3-5---5--|
E---3--------------3------------|

The riff at the end of the disco section:

G---------------|---------------|
D---7------6----|----5------3---|
A-8---8--7---7--|--6---6--4---4-|
E---------------|---------------|

G-------------------------------|
D---3-----4-----5-----6-----7---|
A-4---4-5---5-6---6-7---7-8---8-|
E-------------------------------|

Back to the verse/chorus riff until the end!

            
            
Suggest correction
Creating personal tab
Creating personal tab
You can edit any tab online and save it as your Personal.

You can edit, replace or remove any tab part or add personal notes – all changes will be seen only by you.

Personal tabs can be accessed anytime from any device, even offline.
Learn more »
Give kudos to tab author, rate the tab!
1 2 3 4 5
comments
print report bad tab
guest
You may want to rate the tab now too:
select rating
Wanna post a correction for this tab? Suggest correction