Oops, an error
Loading. Please wait.

Rags N Bones bass

6,299 views 24 this week
1 commentread comment
1 2 3 4 5
x 5
add to favorites
×
Save as Personal and add changes to this tab that will be seen only by you. Learn more ›
×
You can save this tab as Personal to edit and correct it or add notes. All changes will be seen only by you. Learn more »
launch autoscroll
font size
0
reset
guitar tuner
edit
Autoscroll
slow
fast
+/-
esc
set tempo
stop
Author
Difficulty
#----------------------------------PLEASE NOTE---------------------------------#
#This file is the author's own work and represents their interpretation of the #
#song. You may only use this file for private study, scholarship, or research. #
#------------------------------------------------------------------------------#

================================================================================
    Title: Rags 'n' Bones                   Author: nomeansno
    Album: Wrong                            Tabber: notsirK
================================================================================



Verse:

G|-------------------------|------10----12-10---------------------------|
D|---------------------10/-|--12-----12-------12-11-10--------------10/-|
A|-------------------------|---------------------------13-10---10-------|
E|-------------------------|--------------------------------------------|


------10----12-10---------------------------|
--12-----12-------12-11-10--------------10/-|
---------------------------13-10---10-------|
--------------------------------------------|  (x8)


Pre-Chorus:

-----12-10----12-10----12-10----12-10----12-10----|
--12-------12-------12-------12-------12-------12-|
--------------------------------------------------|
--------------------------------------------------|


--12-10----12-10----12-10----12-10----12-10-------|
--------12-------12-------12-------12-------12-10-|
--------------------------------------------------|
--------------------------------------------------|

 
(Verse)


Chorus:

----------------------------|----------------------------|
----------------------------|----------------------------|
----------------------------|----------------------------|
--5--5-5--5-5-5-5*-5---0----|--5--5-5--5-5-5-5*-5---0----|  (x4)
* You may be tempted to go down to 3 on this note but technically
  only the guitar does that.


(Verse x8)


Pre-Chorus 2 (alt end):

-----12-10----12-10----12-10----12-10----12-10----|
--12-------12-------12-------12-------12-------12-|
--------------------------------------------------|
--------------------------------------------------|

    
--12-10----12-10----12-10----12-10-12/-15----|
--------12-------12-------12-----------------|
---------------------------------------------|
---------------------------------------------|

(Verse)
(Chorus x4)


Fill:

--8--7--6--5--3--5-3---------|---------------------------------|
---------------------5-3-5---|--5-3----------------------------|
-----------------------------|------5-4-3-1-------1------------|
-----------------------------|--------------3-1-3---3-1-3------|


Interlude:

----------------------3---|----------------------3---|
--------------------------|--------------------------|
-----1----1-----1---------|-----1----1-----1---------|
--3-----3----3-----3------|--3-----3----3-----3------|  (x8)

--------------------------|--------------------------|
--------------------------|--------------------------|
-----1----1-----1-----1---|-----1----1-----1-----1---|
--3-----3----3-----3------|--3-----3----3-----3------|  (x4)


(Verse x2)


Bridge:

---------|------------------------------------|
---------|------------------------------------|
---------|------8----10-8---------------------|
------8/-|--10----10------10-9-8-6-3---3---8/-|

------------------------------------|
------------------------------------|
------8----10-8---------------------|
--10----10------10-9-8-6-3---3---8S-|  (x4)


(Pre-Chorus 2)
(Verse)
(Chorus x4)

Interlude (voice only)

(Bridge x2)
(Verse x2)
(Fill)

            
            
Suggest correction
Creating personal tab
Creating personal tab
You can edit any tab online and save it as your Personal.

You can edit, replace or remove any tab part or add personal notes – all changes will be seen only by you.

Personal tabs can be accessed anytime from any device, even offline.
Learn more »
comments
print report bad tab
1 comment total.
0 reply
KingOvDarkness 236 Aug 11, 2011 05:48 PM

Great tab! The only part missing is that there should be another 2 verses after the (chorus x4)

(verse)
(chorus x4)
++(verse x2)++

Fill:

guest
You may want to rate the tab now too:
select rating
Wanna post a correction for this tab? Suggest correction